» » »

Cliff Burton Memorial Bass tabs (ver.3)

Artists:  A B C D E F G H I J K L M N O P Q R S T U V W X Y Z # 

Cliff Burton Memorial Bass tabs (ver.3)

Metallica
Rating:
0/5 (0 votes)

Hard to play? Try these video lessons and learn fast.
                Intro:

|----------14----------------------12--------------------9----|
|-------------14----------------------12-------------------9--|
|---12-----------12--12/10--10-----------10--10/7--7----------|
|-------------------------------------------------------------|

|-------------10-------------------|
|----------------10---------------*|
|--7--7/8-----------8--8/10/12----*|
|----------------------------------|
            
Hard to play? Try these video lessons and learn fast. | Correct




comments powered by Disqus
↑ Back to top | Tablatures and chords are parodies/interpretations of the original songs. You may use it for private study, scholarship, research or language learning purposes only