» » »

Carpe Diem Baby Tabs (ver.1)

Artists:  A B C D E F G H I J K L M N O P Q R S T U V W X Y Z # 

Carpe Diem Baby Tabs (ver.1)

Metallica
Rating:
0/5 (0 votes)

Tabs too difficult? Try these video lessons and learn fast.
                PROPS GO TO: Joshua Ball



tune all guitars down 1/2 step
1)
Db--5-5-----5-5-----5-5-----5-5
Ab--7-7-----7-7-----7-7-----7-7
Eb------0-0-----0-0-----0-0----
       pm..     ...     ...
intro fade in


2)
Gb------7------------------7----------
Db------5------------------5----------
Ab----------5------------------5------
Eb--0-0---7---7-5-3--5p3-0---7---7-5-3


3)
Db--7/9-----9\7/10\9-----7--5-5-4
Ab--5/7-----7\5/8-\7-----5--3-3-2
Eb------0-0----------0-0---------
       pm..          ...
verse
"Hit dirt, shoot trees."


4)
Db--4--3--------2-2-2-2--4--3--------2-2-2-2--7--5-5-4
Ab--2--1--5--4--2-2-2-2--2--1--5--4--2-2-2-2--5--3-3-2
Eb--------3--2--0-0-0-0--------3--2--0-0-0-0----------
               pm......              .......
bridge
"They make me miss you"


5)
Db--------------    -------------    -----------------5
Ab--2--4--5--7-2 1) -2--4--5--7-2 1) -2--4--5--7--7-7-3
Eb--0--2--3--5-0    -0--2--3--5-0    -0--2--3--5--5-5--
chorus
"So wash your face away with dirt."


6)            ^           ^
Gb------7-----9-----7-----9
Db------5-----7-----5-----7
Ab-------------------------
Eb--0-0---0-0---0-0---0-0--
   pm
pre solo


7a)
Db--------9----------9---------------------
Ab--------7----------7-----------9-7--9-7-5
EB--0-0-0---0-0--0-0---0-0--0-0--7-5--7-5-3
   pm....   ........   ........

7b)
Db----------5----------5----------5-4--5-4-2
Ab--2-2-2-2-3-2-2--2-2-3-2-2--2-2-3-2--3-2-0
Eb------------------------------------------
   pm.......................................

7c)
Db------9-----11----12-----14
Ab------7-----9-----10-----12
Eb--0-0---0-0---0-0----0-0---
solo backing
            
Tabs too difficult? Try these video lessons and learn fast.




comments powered by Disqus
↑ Back to top | Tablatures and chords are parodies/interpretations of the original songs. You may use it for private study, scholarship, research or language learning purposes only