>
 >
Blackened 3

Blackened 3 Bass Tabs

Metallica - Blackened 3 chords, tabs, tablatures, lyrics

Guitar lessons | Add/correct | Request | Top 50 tabs Artists:  A B C D E F G H I J K L M N O P Q R S T U V W X Y Z 0-9

Blackened 3 Bass Tabs – Metallica

CD, Sheet music, Poster

Do you like Blackened 3? Share with your friends now
Bass TabsBass Tabs v2Bass Tabs v3Bass Tabs v4Bass Tabs v5ChordsDrum TabsTabsTabs v2Tabs v3Tabs v4Tabs v5Tabs v6Tabs v7Ukulele
-----------------------------------------------------------------------------
			     Blackened - Metallica
                              And Justice For All
-----------------------------------------------------------------------------



Peavey Cab, 2 X 10" Peavey Cab, Peavey Classic series 120/120 Power Amp. Trace Elliot
GP12-SMX 12 Band Graphic EQ Pre- mplification System.

This is the Blackened bass tab which is off the And Justice For All album. I play this
song with a pick as I do with every MetallicA song. This tab may not be exactly how it
is played from a book you may buy for Metallica bass tabs. But this is how I play it.
If you would like to have the sound files which I recorded for this song which is only

If You have any suggestions/changes or coments, please feel free email them on as well.

Tuning : Standard

G|-------------------------------------------------------------------|
D|-------------------------------------------------------------------|
A|--FADE IN-------------7-------------------7----9-10---------------7|
E|----(7)-----8----10-------7----8----10----------------7--8--10-----|

G|-------------------------------------------------|--------------|
D|-------------------------------------------------|--------------|
A|--------------------7\-----1-----2-333-----------|-GUITARS ONLY-|
E|----7----8----10-------------2-3-------1-0----0--|--------------|

G|---------------------------|
D|---------------------------|
A|---------------------------|
E|333333-0--22-333333-0--22--|

[Main Riff 1]
G|-------------------------------------------------------------|
D|--------------------------8----------------------------------|
A|-----7---7---787----7---7---7---7---7---787---1------2-333---|
E|--0---0---0------0---0---0----0----0--0----------2-3-------1-|

G|-------------------------------------------------------------|
D|--------------------------8----------------------------------|
A|-----7---7---787----7---7---7---7---7---787---1------2-333---|
E|--0---0---0------0---0---0----0----0--0----------2-3-------1-|

G|-------------------------------------------------------------|
D|--------------------------8----------------------------------|
A|-----7---7---787----7---7---7---7---7---787---1------2-333---|
E|--0---0---0------0---0---0----0----0--0----------2-3-------1-|

G|-------------------------------------------------------------|
D|--------------------------8----------------------------------|
A|-----7---7---787----7---7---7---7---7---787---1------2-333---|
E|--0---0---0------0---0---0----0----0--0----------2-3-------1-|

[Main Riff 2]
G|-------------------------------------------------------|
D|-------------------------------------------------------|
A|--------------1---0-1-2-----------------1---0-1-2------|
E|0-0-0-0-0-0-----3-------3--0-0-0-0-0-0----3-------3----|

G|-------------------------------------------------------|
D|-------------------------------------------------------|
A|--------------1---0-1-2-----------------1---0-1-2------|
E|0-0-0-0-0-0-----3-------3--0-0-0-0-0-0----3-------3----|

G|-------------------------------------------------------|
D|-------------------------------------------------------|
A|--------------1---0-1-2-----------------1---0-1-2------|
E|0-0-0-0-0-0-----3-------3--0-0-0-0-0-0----3-------3----|

G|-------------------------------------------------------|
D|-------------------------------------------------------|
A|--------------1---0-1-2-----------------1---0-1-2------|
E|0-0-0-0-0-0-----3-------0--3-3-3-3-3-3----3-------3----|

G|-------------------------------------------------------|
D|-------------------------------------------------------|
A|--------------1---0-1-2-----------------1---0-1-2------|
E|0-0-0-0-0-0-----3-------3--0-0-0-0-0-0----3-------3----|

G|-------------------------------------------------------|
D|-------------------------------------------------------|
A|--------------1---0-1-2-----------------1---0-1-2------|
E|0-0-0-0-0-0-----3-------3--0-0-0-0-0-0----3-------3----|

G|-------------------------------------------------------------|
D|--------------------------8----------------------------------|
A|-----7---7---787----7---7---7---7---7---787---1------2-333---|
E|--0---0---0------0---0---0----0----0--0----------2-3-------1-|

G|---------------------------|
D|-----------------------8---|
A|-----7---7---787---7--7--7-|
E|--0---0---0------0---0-----|

G|--------------------------------------------------------|
D|----------------------------------------4---4-----------|
A|--------------7------5h7-----3h5------------------------|
E|0-0-0-0-0-0-0-0--5-5-----3-3-----3-3-2----2---3333-2222-|

G|------------------------------------------------|
D|------7-------------------4---4-----------------|
A|7-5h7---7---5h7-----3h5-------------------------|
E|0--------5-5-----3-3-----3-3-2---2---33333-0-22-|

G|-------------------------------------------------------------|
D|--------------------------8----------------------------------|
A|-----7---7---787----7---7---7---7---7---787---1------2-333---|
E|--0---0---0------0---0---0----0----0--0----------2-3-------1-|

G|-------------------------------------------------------|
D|-------------------------------------------------------|
A|--------------1---0-1-2-----------------1---0-1-2------|
E|0-0-0-0-0-0-----3-------3--0-0-0-0-0-0----3-------3----|

G|-------------------------------------------------------|
D|-------------------------------------------------------|
A|--------------1---0-1-2-----------------1---0-1-2------|
E|0-0-0-0-0-0-----3-------0--3-3-3-3-3-3----3-------3----|

G|-------------------------------------------------------|
D|-------------------------------------------------------|
A|--------------1---0-1-2-----------------1---0-1-2------|
E|0-0-0-0-0-0-----3-------3--0-0-0-0-0-0----3-------3----|

G|-------------------------------------------------------|
D|-------------------------------------------------------|
A|--------------1---0-1-2-----------------1---0-1-2------|
E|0-0-0-0-0-0-----3-------0--3-3-3-3-3-3----3-------3----|

G|-------------------------------------------------------------|
D|--------------------------8----------------------------------|
A|-----7---7---787----7---7---7---7---7---787---1------2-333---|
E|--0---0---0------0---0---0----0----0--0----------2-3-------1-|

G|---------------------------|
D|-----------------------8---|
A|-----7---7---787---7--7--7-|
E|--0---0---0------0---0-----|

G|--------------------------------------------------------|
D|----------------------------------------4---4-----------|
A|--------------7------5h7-----3h5------------------------|
E|0-0-0-0-0-0-0-0--5-5-----3-3-----3-3-2----2---3333-2222-|

G|------------------------------------------------|
D|------7-------------------4---4-----------------|
A|7-5h7---7---5h7-----3h5-------------------------|
E|0--------5-5-----3-3-----3-3-2---2---33333-0-22-|

G|----------------------------------|
D|----------------------------------|
A|----------------------------------|
E|--33333-0-22---33333-0-22----0-0--|

[With Bass Drum}
G|--------------------------------|--------------------------------|
D|--------------------------------|--------------------------------|
A|--------------------------------|--------------------------------|
E|--0-------0--------0-------0----|--0-------0--------0-------0----|

G|--------------------------------|--------------------------------|
D|--------------------------------|--------------------------------|
A|--------------------------------|--------------------------------|
E|--0-------0--------0-------0----|--0-------0--------0-------0----|

G|--------------------------------|--------------------------------|
D|--------------------------------|--------------------------------|
A|--------------------------------|-----------------5h7\2----------|
E|--0-------0--------0-------0----|---0-0-0-0-0-0-0----------------|

G|--------------------------------|--------------------------------|
D|--------------------------------|--------------------------------|
A|------------------------5h7\2---|------------------------5h7\2---|
E|--0-------0--------0------------|--0-------0--------0------------|

G|-------------------------------------|
D|-----------------------------5-------|
A|------------------------5h7----77-5-7|
E|--0-------0--------0-----------------|

G|-------------------------------------------------------------------8-|
D|---------------------------------------------------------------6h8---|
A|---------8-7-------------8-7---------------7----------------6--------|
E|-----5-6-----0-0-0-0-5-6-----0-0-0-0-5-6-7----0-0-0-0-0-5-6----------|

G|---------------------------------------------------------------------|
D|-------------------------8-----------------------------------6h8-6h8-|
A|-----------7---------7-----7---------------7----------------6---6----|
E|-----5-6-7---0-0-0-0---6-----0-0-0-0-5-6-7----0-0-0-0-0-5-6----------|

G|-------------------------------------------------------------8-----|
D|-----------------------5---5h7-5---5---------5---5h7-5---6h8---8---|
A|--7---7-7-5h7-5--5-6-7---7-------7---7---5h7---7-------6---------6-|
E|----0----------7-----------------------0---------------------------|

G|---------------------------------------------------------8---------|
D|-------------------5---5h7-5---5---------5---5h7-5---6h8---8-------|
A|--7---5h7-5--5-6-7---7-------7---7---5h7---7-------6---------6\----|
E|----0------7-----------------------0---------------------------\2--|

G|----------------------------------------------------------------|
D|--------------------------------------------4-------3-----------|
A|--------------2--------------2h3p2------------------------------|
E|---2--2-2-2-3---3-2--2-2-2-3-------2--2-2-2---2-0-1---1-1-1-1-1-|

G|-------------------------------------------------------------------8-|
D|---------------------------------------------------------------6h8---|
A|---------8-7-------------8-7---------------7----------------6--------|
E|-----5-6-----0-0-0-0-5-6-----0-0-0-0-5-6-7----0-0-0-0-0-5-6----------|

G|---------------------------------------------------------------------|
D|-------------------------8-----------------------------------6h8-6h8-|
A|-----------7---------7-----7---------------7----------------6---6----|
E|-----5-6-7---0-0-0-0---6-----0-0-0-0-5-6-7----0-0-0-0-0-5-6----------|

G|-------------------------------------------------------------8-----|
D|-----------------------5---5h7-5---5---------5---5h7-5---6h8---8---|
A|--7---7-7-5h7-5--5-6-7---7-------7---7---5h7---7-------6---------6-|
E|----0----------7-----------------------0---------------------------|

G|---------------------------------------------------------8---------|
D|-------------------5---5h7-5---5---------5---5h7-5---6h8---8-------|
A|--7---5h7-5--5-6-7---7-------7---7---5h7---7-------6---------6\----|
E|----0------7-----------------------0---------------------------\2--|

G|----------------------------------------------------------------|
D|--------------------------------------------4-------3-----------|
A|--------------2--------------2h3p2------------------------------|
E|---2--2-2-2-3---3-2--2-2-2-3-------2--2-2-2---2-0-1---1-1-1-1-1-|

G|-------------------------------------------|
D|-------------------------------------------|
A|---------5---3-2------------5---3-2-2-2----|
E|--0--0-0---0-----3-2-0--0-0---0---------3-2|

G|-------------------------------------------|
D|-------------------------------------------|
A|---------5---3-2------------5---3-2-2-2----|
E|--0--0-0---0-----3-2-0--0-0---0---------3-2|

G|-------------------------------------------|
D|-------------------------------------------|
A|---------5---3-2------------5---3-2-2-2----|
E|--0--0-0---0-----3-2-0--0-0---0---------3-2|

G|-------------------------------------------|
D|-------------------------------------------|
A|---------5---3-2------------5---3-2-2-2----|
E|--0--0-0---0-----3-2-0--0-0---0---------3-2|

G|---------------------------------------------------------------------|
D|---------------------------------------------------------------------|
A|----------------------------PAUSE------------------------------PAUSE-|
E|0-2-3-0-2-3-0-3-0-3-2-0-3-2--------0-3-2-0-3-2-0-2-0-3-2-0-3-2-------|

G|---------------------------------------------------------------------|
D|---------------------------------------------------------------------|
A|----------------------------PAUSE------------------------------PAUSE-|
E|0-2-3-0-2-3-0-3-0-3-2-0-3-2--------0-3-2-0-3-2-0-2-0-3-2-0-3-2-------|

G|---------------------------------------------------------------------|
D|---------------------------------------------------------------------|
A|----------------------------PAUSE------------------------------PAUSE-|
E|0-2-3-0-2-3-0-3-0-3-2-0-3-2--------0-3-2-0-3-2-0-2-0-3-2-0-3-2-------|

G|----------------------------------------------------------------|
D|----------------------------------------------------------------|
A|----------------------------PAUSE-------------------------------|
E|0-3-2-0-3-2-0-2-0-3-2-0-3-2--------333333-0-1-1-333333-0-1-1-0-0|

G|---------------------------------|
D|---------------------------------|
A|--7-7-7-7-5-5-5-5-8-8-8-8-7-7-7-7|
E|-0-0-0-0-0-0-0-0-0-0-0-0-0-0-0-0-|

G|----------------------------------------------------|
D|----------------------------------------------------|
A|-7-7-7-7-5-5-5-5-8-8-8-8-7-7-7-7----------------7\2-|
E|0-0-0-0-0-0-0-0-0-0-0-0-0-0-0-0-0-0-0-0-0-0-0-0-0---|

G|-----------------------------------------|
D|-------------------------4---4-----------|
A|------5h7-----3h5------------------------|
E|--5-5-----3-3-----3-3-2----2---3333-2222-|

G|--------------------------------------------|
D|------5-------------------------4---4-------|
A|7-5h7---7-----5h7-----3h5-------------------|
E|0---------5-5-----3-3-----3-3-2---2---33333-|

G|--------------------------------------------------|
D|--------------------------------------------------|
A|--7-7-7-7-7-7-7-7-5-5-5-5-3-3-3-3-7-7-7-7-7-7-7-7-|
E|-0-0-0-0-0-0-0-0-0-0-0-0-0-0-0-0-0-0-0-0-0-0-0-0--|

G|---------------------------------|
D|---------------------------------|
A|-7-7-7-7-7-7-7-7-3-3-3-3-5-5-5-5-|
E|0-0-0-0-0-0-0-0-0-0-0-0-0-0-0-0--|

G|-------------------------------------------------------------|
D|-----------------------------8-------------------------------|
A|----7---7---787----7---7---7--7---7---7--787---1----2-333----|
E|--0---0---0------0---0---0--------0--0--0--------2-3-------1-|

G|-------------------------------------------------------------|
D|-----------------------------8-------------------------------|
A|----7---7---787----7---7---7--7---7---7--787---1----2-333----|
E|--0---0---0------0---0---0--------0--0--0--------2-3-------1-|

G|-----------------------------------------------------------------|
D|--------------------------8--------------------------------------|
A|----7---7.--7-8-7---7.--7---7---7---7.--7-8-7---1-----2-333------|
E|--0---0------------0-----------0---0---------------2-3-------1---|

G|-----------------------------------------------------------------|
D|--------------------------8--------------------------------------|
A|----7---7.--7-8-7---7.--7---7---7---7.--7-8-7---1-----2-333------|
E|--0---0------------0-----------0---0---------------2-3-------1---|

G|-------------------------------------------------------|
D|-------------------------------------------------------|
A|--------------1---0-1-2-----------------1---0-1-2------|
E|0-0-0-0-0-0-----3-------3--0-0-0-0-0-0----3-------3----|

G|-------------------------------------------------------|
D|-------------------------------------------------------|
A|--------------1---0-1-2-----------------1---0-1-2------|
E|0-0-0-0-0-0-----3-------0--3-3-3-3-3-3----3-------3----|

G|-------------------------------------------------------|
D|-------------------------------------------------------|
A|--------------1---0-1-2-----------------1---0-1-2------|
E|0-0-0-0-0-0-----3-------3--0-0-0-0-0-0----3-------3----|

G|-------------------------------------------------------|
D|-------------------------------------------------------|
A|--------------1---0-1-2-----------------1---0-1-2------|
E|0-0-0-0-0-0-----3-------0--3-3-3-3-3-3----3-------3----|

G|-----------------------------------------------------------|
D|--------------------------8--------------------------------|
A|-----7---7---787----7---7--7---7---7--787---1----2-333-----|
E|--0---0---0------0---0--------0--0--0--------2-3-------1---|

G|---------------------------|
D|-----------------------8---|
A|-----7---7---787---7--7--7-|
E|--0---0---0------0---0-----|

G|--------------------------------------------------------|
D|----------------------------------------4---4-----------|
A|--------------7------5h7-----3h5------------------------|
E|0-0-0-0-0-0-0-0--5-5-----3-3-----3-3-2----2---3333-2222-|

G|------------------------------------------------|
D|------7-------------------4---4-----------------|
A|7-5h7---7---5h7-----3h5-------------------------|
E|0--------5-5-----3-3-----3-3-2---2---33333-0-22-|

G|------------------------------------------|
D|--------------------------4---4-----------|
A|7------5h7-----3h5------------------------|
E|0--5-5-----3-3-----3-3-2----2---3333-2222-|

G|-------------------------------------||--------------------------|
D|------7------------------------4---4-||--------------------------|
A|7-5h7---7---5h7-----3h5--------------||--------------------------|
E|0--------5-5-----3-3-----3-3-2---2---||33333-0-22-33333-0-22--0-0|

G|-------------------------------|
D|-------------------------------|
A|-----7---7---787----7---7---7--|
E|--0---0---0------0---0----6-0--|

| /  Slide up
| \  Slide down
| h  Hammer-on
| p  Pull-off
| ~  Vibrato
| +  Harmonic
| x  Mute Note 
| .  Short Pause
=============================================================================





Comments


Popular Metallica tabs & chords
Aint My Bitch Bass Tabs
Free Speech For The Dumb Bass Tabs
God Of Thunder 3 Bass Tabs
Astronomy Drum Tabs
Breadfan Tabs
Broken Beat And Scarred Tabs
Dirty Window 2 Tabs
No Leaf Clover Intro Tabs
Nothing Else Matters Full Version Tabs
Trapped Under Ice 2 Tabs


Song lyrics



↑ Back to top | Tablatures and chords are parodies/interpretations of the original songs. You may use it for private study, scholarship, research or language learning purposes only
© 2014 AZChords.com Contact us | Privacy policy | DMCA | Add/correct tabs | Request tabs | Top 50 tabs