» » »

Bad Seed Bass tabs (ver.1)

Artists:  A B C D E F G H I J K L M N O P Q R S T U V W X Y Z # 

Bad Seed Bass tabs (ver.1)

Metallica
Rating:
0/5 (0 votes)

Tabs too difficult? Try these video lessons and learn fast.
                -------------------------------------------------------------------------------
                             Bad Seed - Metallica
-------------------------------------------------------------------------------
Tuning: half step

HEY GUYS UR CHO-CHO-CHO-CHO-KING ON A BAD SEED!!!!!!!!
                                                     
G||-4h6-4-----------4h6-4------------|| 
D||o------6-4-2-----------6-4-2---2-o||                
A||o------------4-4-------------4---o|| x4 
E||----------------------------------|| 
                     
G||----------------||-----------------------||
D||----------------||o---------------------o||
A||----------------||o---------------------o|| x3
E||00-0-0-0-0-00 R0||-0-0-0-0-0-0-2h3-2-4-2-||   

G||-----------------|| ||------------|| 
D||-----------------|| ||o----------o|| X8 
A||-----------------|| ||o----------o||  
E||00-0-0-0-33333333|| ||-0-0-0-2h30-||  

G||-4h6-4-----------4h6-4------------|| 
D||o------6-4-2-----------6-4-2---2-o||                
A||o------------4-4-------------4---o|| x4 
E||----------------------------------||

G||----------------------------------------|| 
D||----------------------------------------|| 
A||----------------------------------------|| 
E||0-0-0-0-0---1-1-1-1-1---2-2-2-2-22221111|| 

G||----------------||-----------------------||
D||----------------||o---------------------o||
A||----------------||o---------------------o|| x3
E||00-0-0-0-0-00 R0||-0-0-0-0-0-0-2h3-2-4-2-||

G||-----------------||  
D||-----------------|| 
A||-----------------||  
E||00-0-0-0-33333333||  

G||-----------------|| ||------------|| 
D||-----------------|| ||o----------o|| x8 
A||-----------------|| ||o----------o||  
E||00-0-0-0-33333333|| ||-0-0-0-2h30-||

G||-4h6-4-----------4h6-4------------|| 
D||o------6-4-2-----------6-4-2---2-o||                
A||o------------4-4-------------4---o|| x4 
E||----------------------------------||

G||----------------------------------------|| 
D||----------------------------------------|| 
A||----------------------------------------|| 
E||0-0-0-0-0---1-1-1-1-1---2-2-2-2-22221111|| 

G||----------------||-----------------------||
D||----------------||o---------------------o||
A||----------------||o---------------------o|| x3
E||00-0-0-0-0-00 R0||-0-0-0-0-0-0-2h3-2-4-2-||

G||-----------------------||
D||-----------------------||
A||-----------------------||
E||0-0-0-0-0-0-0-0-0-0-0-0||
                   
G||----------------||-----------------------||
D||----------------||o---------------------o||
A||----------------||o---------------------o|| x3
E||00-0-0-0-0-00 R0||-0-0-0-0-0-0-2h3-2-4-2-||
                                                     
G||-4h6-4-----------4h6-4------------|| 
D||o------6-4-2-----------6-4-2---2-o||                
A||o------------4-4-------------4---o|| x4 
E||----------------------------------||
                
G||----------------------------------------|| 
D||----------------------------------------|| 
A||----------------------------------------|| 
E||0-0-0-0-0---1-1-1-1-1---2-2-2-2-22221111||

G||----------------||-----------------------||
D||----------------||o---------------------o||
A||----------------||o---------------------o|| x3
E||00-0-0-0-0-00 R0||-0-0-0-0-0-0-2h3-2-4-2-||
                 
G||------------|| 
D||------------|| 
A||------------|| 
E||000000000000|| 

G||---------------------------------------------||
D||---------------------------------------------||
A||---------------------------------------------||
E||-00-0-0-0-0-0-2h3-2-4-2-0-0-0-0-0-0-2h3-2-4-0||

and there u go its pretty simple i might have got sumthin wrong but if i did just 
scribble it out, so heres more reload!!

MetallicaDMRTL

                        \m/Metallica\m/
            
Tabs too difficult? Try these video lessons and learn fast.




comments powered by Disqus
↑ Back to top | Tablatures and chords are parodies/interpretations of the original songs. You may use it for private study, scholarship, research or language learning purposes only