>
 >
Astronomy

Astronomy Bass Tabs

Metallica - Astronomy chords, tabs, tablatures, lyrics

Guitar lessons | Add/correct | Request | Top 50 tabs Artists:  A B C D E F G H I J K L M N O P Q R S T U V W X Y Z 0-9

Astronomy Bass Tabs – Metallica

CD, Sheet music, Poster

Do you like Astronomy? Share with your friends now
Bass TabsChordsDrum TabsTabsTabs v2Tabs v3Tabs v4Tabs v5Ukulele
Band: MetallicA (original Samuel Pearlman, Albert & Joseph Bouchard)


Tune down 1/2 step.
4/4

-------------------------------- Bass ---------------------------------

Intro: (six bar without bass)
|--------------------------------|--------------------------------|
|--------------------------------|-------------9-----7h9---7------|
|-7---7-------7------------------|-7---7-------7--------------10--|
|-0---0-------0------------------|-0---0--------------------------|

|--------------------------------|--------------------------------|
|-------------9------------------|-------------9-----7h9---7------|
|-7---7-------7------------------|-7---7-------7--------------10--|
|-0---0--------------------------|-0---0--------------------------|

|--------------------------------|--------------------------------|
|-------------9------------------|-------------------7h9---7------|
|-7---7-------7------------------|-7---7-------7--------------10--|
|-0---0--------------------------|-0---0-------0------------------|

Verse 1:                          2/4
|--------------------------------|--------------------------------|
|-------------------------7------|--------------------------------|
|-7----------(7)-\5-----------5-\|-3---------------2--------------|
|-0------------------------------|--------------------------------|
 4/4
|--------------------------------|--------------------------------|
|-------------9------------------|-------------------------7------|
|-----7--------------------------|-7----------(7)\-5-----------5\-|
|-0------------------------------|-0------------------------------|
 2/4				  4/4
|--------------------------------|--------------------------------|
|-------------5------------------|--------------------------------|
|-3---------------2--------------|-------------7------7p5---------|
|--------------------------------|-0---0-----------------7\3---5--|

|--------------------------------|--------------------------------|
|---------5-------5-------7-5----|--------------------------------|
|-3---------5/7---------------7-\|-3-----3h5-p-3---2---------3-5--|
|--------------------------------|--------------------------------|
                                  2/4
|--------------------------------|--------------------------------|
|---------9---------------7------|---------5----------------------|
|-7-----------7-\-5-----------5-\|-3---------------2--------------|
|--------------------------------|--------------------------------|
 4/4
|--------------------------------|--------------------------------|
|-------------9------------------|-------------9-----7h9---7------|
|-----7--------------------------|-----7----------------------10--|
|-0------------------------------|-0------------------------------|

|--------------------------------|--------------------------------|
|-------------9------------------|-------------------7h9---7------|
|-----7--------------------------|-7---7-------7--------------10--|
|-0---0--------------------------|-0---0-------0------------------|

Verse 2:                          2/4
|--------------------------------|--------------------------------|
|-------------------------7------|---------5---------------4------|
|-7----------(7)\-5-----------5-\|-3---------------2--------------|
|-0------------------------------|--------------------------------|
 4/4
|--------------------------------|--------------------------------|
|-------------9------------------|-------------------------7------|
|-----7----------------------10--|-7-----------7-\-5-----------5--|
|-0------------------------------|-0------------------------------|
 2/4				  4/4	
|--------------------------------|--------------------------------|
|-----5--------------------------|--------------------------------|
|-3---------------2--------------|-------------7------7p5---------|
|--------------------------------|-0---0-----------------7\3---5--|

|--------------------------------|-------------------------4------|
|-------------5----------7p5-----|----------------------4---------|
|-3------5/7-----------------7p5\|-3-----3h5-p-3---2-2---------2-/|
|--------------------------------|--------------------------------|
				  2/4
|--------------------------------|--------------------------------|
|---------9----------------------|--------------------------------|
|-7-----------7-\-5-------5h7p5--|-3---------------2--------------|
|--------------------------------|--------------------------------|
 4/4
|--------------------------------|--------------------------------|
|-------------9------------------|-9-----------9-----7h9---7------|
|-----7--------------------------|-7---7-------7--------------10--|
|-0------------------------------|-----0--------------------------|

Interlude:
 4/4
|--------------------------------|--------------------------------|
|--------------------------------|--------------------------------|
|-7---------------5--------------|-3---------------7--------------|
|-0------------------------------|-----------------0--------------|

|--------------------------------|--------------------------------|
|--------------------------------|--------------------------------|
|-7---------------5--------------|-3---------------7-5------------|
|-0------------------------------|---------------------7---5--b3--|

|--------------------------------|--------------------------------|
|--------------------------------|-----------------------------5--|
|-7---------------5--------------|-3---------------7--------------|
|-0------------------------------|-----------------0---5-h-7------|
                                  2/4
|--------------------------------|--------------------------------|
|--------------------------------|--------------------------------|
|-7---------------5--------------|-3------------------------------|
|-0------------------------------|--------------------------------|
 4/4
|--------------------------------|
|--------------------------------|
|-3----------2-3--5--------4--5--|
|----0-3-3h5----------5--7-------|

Fig.1 (Play in the structure below)
|--------------------------------|--------------------------------|
|-9--x-9---x--9---x-x-5---5--x-x-|-7--x-7---x--7---x-x-9---9--x-x-|
|-7--x-7---x--7---x-x-3---3--x-x-|-5--x-5---x--5---x-x-7---7--x-x-|
|--------------------------------|--------------------------------|

Play Fig.1 x 2 (With "Hey!" at the beginning of each bar)
Play Fig.1 x 4 (For first bridge)
Play Fig.1 x 4 (For second bridge)

|--------------------------------|--------------------------------|
|-7---5-----7-------5-5-5-5-5-5--|-7---5-----7-------5-5-5-5-5-5--|
|-5---3-----5-------3-3-3-3-3-3--|-5---3-----5-------3-3-3-3-3-3--|
|--------------------------------|--------------------------------|
  Ne- ver   Warms                  Ne- ver   Warms

|--------------------------------|--------------------------------|
|-7---5-----7-------5-5-----5----|--------------------------------|
|-5---3-----5-------3-3-----3----|-7------------------------------|
|--------------------------------|-0------------------------------|
  Ne- ver   Warms...
                  
|-G-|----------------------------|--------------------------------|
|-u-|----------------------------|--------------------------------|
|-i-|-------------2p0-0----------|--------------------------------|
|-t-|----------------3----3/-----|-0------------------------------|

|--------------------------------|--------------------------------|
|-------------9------------------|-------------9-----7h9---7------|
|-----7--------------------------|-----7----------------------10--|
|-0------------------------------|-0------------------------------|

|--------------------------------|--------------------------------|
|-------------9------------------|-------------9-----7h9---7------|
|-----7--------------------------|-----7----------------------10--|
|-0------------------------------|-0------------------------------|

Verse 3:                          2/4
|--------------------------------|--------------------------------|
|-------------------------7------|---------5----------------------|
|-7----------(7)\-5-----------5-\|-3---------------2------2p0-----|
|-0------------------------------|--------------------------------|
 4/4
|--------------------------------|--------------------------------|
|--------------------------------|-------------------------7------|
|-------------7------------------|-7----------(7)\-5-----------5-\|
|-0-----------0------------------|-0------------------------------|
 2/4				  4/4
|--------------------------------|--------------------------------|
|-----5--------------------------|--------------------------------|
|-3---------------2--------------|-------------7------7p5---------|
|--------------------------------|-0---0------------------7\3--5--|

|--------------------------------|-------------------------4------|
|-------------5----------7p5-----|--------------------------------|
|-3---3-/5h7-----------------7p5\|-3-----------5---2-----------2-/|
|--------------------------------|--------------------------------|
				  2/4
|--------------------------------|-------------------------4------|
|---------9---------------7------|---------5----------------------|
|-7-----------7-\-5-----------5-\|-3---------------2--------------|
|--------------------------------|--------------------------------|
 4/4
|--------------------------------|--------------------------------|
|-------------9------------------|-9-----------9-----7h9---7------|
|-----7--------------------------|-7---7-------7--------------10--|
|-0------------------------------|-----0--------------------------|

Interlude:
|--------------------------------|--------------------------------|
|--------------------------------|--------------------------------|
|-7---------------5--------------|-3---------------7--------------|
|-0------------------------------|-----------------0--------------|

|--------------------------------|--------------------------------|
|--------------------------------|--------------------------------|
|-7---------------5--------------|-3---------------7--------------|
|-0------------------------------|-------------------0--3--5---7--|

|--------------------------------|--------------------------------|
|--------------------------------|--------------------------------|
|-7---------------5--------------|-3---------------7---5----------|
|-0------------------------------|-------------------0------7--3--|
                                  2/4
|--------------------------------|--------------------------------|
|--------------------------------|--------------------------------|
|-7---------------5--------------|-3-------3-------3---3---3---3--|
|-0------------------------------|--------------------------------|
 4/4
|--------------------------------|
|--------------------------------|
|-3----------2-3--5--------4--5--|
|----0-3-3h5----------5--7-------|

Guitar Solo:
|--------------------------------|--------------------------------|
|-9--x-9---x--9---x-x-5---5--x-x-|-7--x-7---x--7---x-x-9---9--x-x-| x 2
|-7--x-7---x--7---x-x-3---3--x-x-|-5--x-5---x--5---x-x-7---7--x-x-|
|--------------------------------|--------------------------------|
				  1.
|--------------------------------|--------------------------------|
|-9--x-9---x--9---x-x-5---5--x-x-|-7--x-7---x--7---x-x-9----------| 
|-7--x-7---x--7---x-x-3---3--x-x-|-5--x-5---x--5---x-x-7--7-7-9-10|
|--------------------------------|--------------------------------|
				  2.
                                 |--------------------------------|
                                 |-7--x-7---x--7--7-5-----5-------| 
                                 |-5--x-5---x--5------7-5---7-5---|
                                 |------------------------------7-|

Bridge:
|--------------------------------|--------------------------------|
|-9--x-9---x--9---x-x-5---5--x-x-|-7--x-7---x--7---x-x-9---9------| 
|-7--x-7---x--7---x-x-3---3--x-x-|-5--x-5---x--5---x-x-7---7--9-10|
|--------------------------------|--------------------------------|
 Call me Desdinova...             eternal light...
|--------------------------------|--------------------------------|
|-9--x-9---x--9---x-x-5---5--x-x-|-7--x-7---x--7--7-5-------5-----| 
|-7--x-7---x--7---x-x-3---3--x-x-|-5--x-5---x--5------7-5-7---7-5-|
|--------------------------------|--------------------------------|

|--------------------------------|--------------------------------|
|-9--x-9---x--9---x-x-5---5--x-x-|-7--x-7---x--7---x-x-9---9--7-5-| 
|-7--x-7---x--7---x-x-3---3--x-x-|-5--x-5---x--5---x-x-7---7------|
|--------------------------------|--------------------------------|

Interlude:
|--------------------------------|--------------------------------|
|--------------------------------|--------------------------------|
|-7------------------------------|-3---------------------------5-/|
|-0------------------------------|--------------------------------|

|--------------------------------|--------------------------------|
|--------------------------------|-5-------------------5---5---7--|
|-7---------------7----p----5h7--|--------------------------------|
|--------------------------------|--------------------------------|

|--------------------------------|--------------------------------|
|-7/9-----------------------7h9--|-5-------------------7---7---5--|
|--------------------------------|--------------------------------|
|--------------------------------|--------------------------------|

|--------------------------------|--|
|--------------------------------|--|
|-7------------------------------|--|
|--------------------------------|--|

|--------------------------------|--------------------------------|
|--------------------------------|--------------------------------|
|--------------------------------|--------------------------------|
|-------0-0-0-0-0-0-0-0-0-0-0-0--|-0-0-0-0-0-0-0-0-0-0-0-0-0-0-0-0|
								
Ending: (repeat and fade)
|--------------------------------|--------------------------------|
|-9--x-9---x--9---x-x-7---7------|-5--x-5---x--5---x-x-7---7--7-5-| x 4
|-7--x-7---x--7---x-x-5---5--7-5-|-3--x-3---x--3---x-x-5---5------|
|--------------------------------|--------------------------------|
Astronomy.......

-----------------------------------------------------------------------
I play in a band called Orion, don't forget it.





Comments


Popular Metallica tabs & chords
Bass/Guitar Doodle 1 Bass Tabs
Killing Time Bass Tabs
Frantic Drum Tabs
All Nightmare Long Tabs
Dirty Window 4 Tabs
Dyers Eve 2 Tabs
Invisible Kid 1 Tabs
Jump In The Fire Outro Tabs
Some Kind Of Monster Complete Tabs
Trapped Under Ice Tabs


Song lyrics



↑ Back to top | Tablatures and chords are parodies/interpretations of the original songs. You may use it for private study, scholarship, research or language learning purposes only
© 2014 AZChords.com Contact us | Privacy policy | DMCA | Add/correct tabs | Request tabs | Top 50 tabs