>
 >
Astronomy

Astronomy Guitar Tabs

Metallica - Astronomy chords, tabs, tablatures, lyrics

Guitar lessons | Add/correct | Request | Top 50 tabs Artists:  A B C D E F G H I J K L M N O P Q R S T U V W X Y Z 0-9

Astronomy Guitar Tabs – Metallica

CD, Sheet music, Poster

Do you like Astronomy? Share with your friends now
Bass TabsChordsDrum TabsTabsTabs v2Tabs v3Tabs v4Tabs v5Ukulele
PROPS GO TO: LUIS CARLOS CABRERA MARTINEZ

.-/                                       .-.
     _.-~ /  _____  ______ __  _    _     _   ___ | ~-._
     \:/  -~||  __||_  __//  || |  | |  /| | / __/| .\:/
      /     ||  __|:| |\:/ ' || |__| |_/:| || (:/:|   \
     / /\/| ||____|:|_|:/_/|_||____|____||_|:\___\| |\ \
    / /:::|.:\::::\:\:\:|:||:||::::|:::://:/:/:::/:.|:\ \
   / /:::/ \::\::::\|\:\|:/|:||::::|::://:/\/:::/::/:::\ \
  /  .::\   \-~~~~~~~ ~~~~  ~~ ~~~~~~~~ ~~  ~~~~~-/\/:..  \
 /..:::::\                                         /:::::..\
/::::::::-                                         -::::::::\
\:::::-~                                             ~-:::::/
 \:-~                                                   ~-:/

performed on Garage Inc.
tune all guitars down 1/2 step

drum intro
1)
eb--0-0-0-0-0------
Bb--0-0-0-0-0-0----
Gb--4-4-4-4-4-4-2-0
Db--2---2---2------
Ab--2--------------
Eb--0--------------

2)
eb--0--2--0--2--0--
Bb--0--3--1--4--0--
Gb--4--2--0--4--4--
Db--2--0--2--4--2--
Ab--2-----3--2-----
Eb--0--------------
Clock strikes twelve

3)
eb--0--3--0--2
Bb--1--3--1--4
Gb--0--0--0--4
Db--2--0--2--4
Ab--3--2--3--2
Eb-----3------
Like something on a folding chair?

4a) James
eb------------------------------------------------------------
Bb------------------------------------------------------------
Gb------------------------------------------------------------
Db--9-7----7-------9-7----7-------9-7----7-------9-7----7-----
Ab------10---10-9~~----10---10-7~~----10---10-9~~----10---10-7
Eb------------------------------------------------------------

4b) Kirk
eb------------------------------------------------------------
Bb--5-----------------------------5---------------------------
Gb----7-5-7-5-5h7~~5-4----5----5~~--7-5-7-5-5h7~~5-4----5~~7~~
Db---------------------7----7------------------------7--------
Ab------------------------------------------------------------
Eb------------------------------------------------------------

5)
Gb--9----9---9-----5-5~-----7---7---7---9-9
Db--9----9---9-----5-5~-----7---7---7---9-9
Ab--7----7---7-----3-3~-----5---5---5---7-7
Eb--7--0-7-0-7-0-0-3-3--0-0-5-0-5-0-5---0-0
      pm..   ...   .      ...    
"Call me casanova"

6)
Gb-7-5-7--7-7
Db-7-5-7--7-7
Ab-5-3-5--5-5
Eb-----------
"Never warms"

7)
eb--19-17----17-------------------------------------------------------------------
Bb--------20----20-17--12-10----10------------------------------------------------
Gb---------------------------12----12-9-------------------------------------------
Db---------------------------------------9-7----7-------9-7----7------------------
Ab-------------------------------------------10---10-7------10---10-7--2-0---0----
Eb-------------------------------------------------------------------------3---3-0
after never warms part

8a) Kirk
eb--15---------12------------------------------------------12-14-10-12-14-15-17
Bb------13--15---------10-12-----10-12~~12h13p12--12-13-15---------------------
Gb-----------------12---------12-----------------------------------------------
Db-----------------------------------------------------------------------------
Ab-----------------------------------------------------------------------------
Eb-----------------------------------------------------------------------------

8b) James                                         *****************************
eb--15------------------------------------------------------------------------
Bb-------------12-------------------------------------------------------------
Gb------12--14---------11-12--------9~~~~~~-----------------------------------
Db-----------------14---------10--9-------------------------------------------
Ab-----------------------------------------------7-7-6-6-5-5-4-3-2-2-3-3-4-5-6
Eb----------------------------------------------------------------------------
*= similar to artificial harmonics, rest finger above the string while 
picking and sliding down the neck before going into riff 5
pre solo
____________________________
solo 

eb||--15----------------|----------------------|--------------------|
Bb||--------------------|--13~-------------15h-|--17~---------------|
Gb||--------------------|----------------------|--------------------|
Db||--------------------|----------------------|--------------------|
Ab||--------------------|----------------------|--------------------|
Eb||--------------------|----------------------|--------------------|

----------------------|--------------------|----------------------|
----------------------|--12~---------------|----------------------|
--12~-------------14--|--------------------|--12--------------14--|
----------------------|--------------------|----------------------|
----------------------|--------------------|----------------------|
----------------------|--------------------|----------------------|

------------------------|--------------------|----------------------14------|
--12~-------------12h13-|--12~---------------|--12---13---15---17-------15--|
------------------------|--------------------|------------------------------|
------------------------|--------------------|------------------------------|
------------------------|--------------------|------------------------------|
------------------------|--------------------|------------------------------|

-------14---15---17---19--17--|--15---15---15----14--14----|
--17--------------------------|--18b--18b--18b---17b-17b---|
------------------------------|----------------------------|
------------------------------|----------------------------|
------------------------------|----------------------------|
------------------------------|----------------------------|

--12---12---12----14--14----|--15---15---15----15-17-17r-15-17-17r-|
--15b--15b--15b---17b-17b---|--18b--18b--18b-----------------------|
----------------------------|--------------------------------------|
----------------------------|--------------------------------------|
----------------------------|--------------------------------------|
----------------------------|--------------------------------------|

---15-17-17r-15-17-17r--15-17-17r-15-17-15-----|--15---15---15----14--14----|
-------------------------------------------15~-|--18b--18b--18b---17b-17b---|
-----------------------------------------------|----------------------------|
-----------------------------------------------|----------------------------|
-----------------------------------------------|----------------------------|
-----------------------------------------------|----------------------------|

--12---12---12----14--14----|--15---15--15-15--15--15-19-15h19p15----15-19-|
--15b--15b--15b---17b-17b---|--18b--18b-18b18b-18b----------------17-------|
----------------------------|----------------------------------------------|
----------------------------|----------------------------------------------|
----------------------------|----------------------------------------------|
----------------------------|----------------------------------------------|

--15h19p15----15-19-15h19p15----15-19-19p15----15-17-------|
-----------17----------------17-------------17-------15~---|
-----------------------------------------------------------|
-----------------------------------------------------------|
-----------------------------------------------------------|
-----------------------------------------------------------|

--15---15---15----14--14----|--12---12---12----14--14----|
--18b--18b--18b---17b-17b---|--15b--15b--15b---17b-17b---|
----------------------------|----------------------------|
----------------------------|----------------------------|
----------------------------|----------------------------|
----------------------------|----------------------------|

--15---15---15----17--17----|--19b19-19-----19----19----19----19----19----19-|
--18b--18b--18b---20b-20b---|--22-------22b----22b---22b---22b---22b---22b---|
----------------------------|------------------------------------------------|
----------------------------|------------------------------------------------|
----------------------------|------------------------------------------------|
----------------------------|------------------------------------------------|

-----19----19----19-19-----19----19----19-19----|
--22b---22b---22b------22b----22b---22b------22b|
------------------------------------------------|
------------------------------------------------|
------------------------------------------------|
------------------------------------------------|

---19----19----19----19----19----19----19----19-|
------22b---22b---22b---22b---22b---22b---22b---|
------------------------------------------------|
------------------------------------------------|
------------------------------------------------|
------------------------------------------------|

--22r-19-20-22-20p19-19h20p19-20p19-20p19-17-15h17-15-14----14-|
---------------------------------------------------------17----|

-----------------------------------------|------------------------------------|
--17r-15----15-17b-17b-15-17p15----17----|--12--12--12--14---14-14-12-12--12--|
---------16---------------------16-------|--12--12--12--14---14-14-12-12b-12--|
-----------------------------------------|------------------------------------|
-----------------------------------------|------------------------------------|
-----------------------------------------|------------------------------------|

------------------------------------------|
------------------------------------------|
--------------------------12b-12-------12-|
--------12-14--14--14--14--------14~14----|
--12-14-----------------------------------|
------------------------------------------|

---------------------------------------------|
-----12-15p12----12--------------------------|
--14----------14-12----12-14-14r--14r-14r-14r|
--------------------14-----------------------|
---------------------------------------------|
---------------------------------------------|

--------------------------------------------|
-------------------15-----------------------|
----12----12-14/16----16\14-12--------------|
-------14----------------------14~-14-14-14-|
--------------------------------------------|
--------------------------------------------|

-----------------------------------------------------|
--------12----------------12----------------12-------|
--12-14----15-14-12-14-15----15-14-12-14-15----15-14-|
-----------------------------------------------------|
-----------------------------------------------------|
-----------------------------------------------------|

-----------------------------12-------------------------------------------------
--12h14p12----12----12-14h15----15-14-12h14p12----12h14p12----12h14p12----12~---
-----------14----14----------------------------14----------14----------14-----14

--------12----------------------------------------------------15-|
--14-15----15-14-12-14-12----12----------------------12-14/16----|
--------------------------14----14-12-14-12----12-14-------------|
--------------------------------------------14-------------------|

-----15h19-19p17-17p15----15------------------------|
--17-------------------17----17-15----15-17r--15-17h|
-----------------------------------17---------------|
----------------------------------------------------|
----------------------------------------------------|
----------------------------------------------------|

----------------------------||
--17~---17r-15-17-17~-------||
----------------------------||
----------------------------||
----------------------------||
----------------------------||

SALUDOS A LA BANDA DE HERMOSILLO SONORA EN ESPECIAL A MI GETE EL PACO EL GERMAN Y EL KIRINO





Comments


Popular Metallica tabs & chords
Battery Bass Tabs
It's Electric 1 Bass Tabs
Mexico City Bass Tabs
Commando Tabs
Crash Course In Brain Surgery 1 Tabs
Cretin 1 Tabs
Fade To Black Live Intro Tabs
Shoot Me Again 1 Tabs
The Wait Tabs
Until It Sleeps 4 Tabs


Song lyrics



↑ Back to top | Tablatures and chords are parodies/interpretations of the original songs. You may use it for private study, scholarship, research or language learning purposes only
© 2014 AZChords.com Contact us | Privacy policy | DMCA | Add/correct tabs | Request tabs | Top 50 tabs