» » »

All Within My Hands Tabs (ver.2)

Artists:  A B C D E F G H I J K L M N O P Q R S T U V W X Y Z # 

All Within My Hands Tabs (ver.2)

Metallica
Rating:
0/5 (0 votes)

Hard to play? Try these video lessons and learn fast.
                Drop C Tuning (CGCFAD)
Bend = b
Return = r

D |--------------------------------------------------------------------------|
A |--------------------------------------------------------------------------|
F |--------------------------------------------------------------------------|
C |-7-7-0-0-6-6-0-0-5-5-3--7-7-0-0-6-6-0-0-5-5-3-----------------------------|
G |-7-7-0-0-6-6-0-0-5-5-3--7-7-0-0-6-6-0-0-5-5-3-----------------------------|
C |-7-7-0-0-6-6-0-0-5-5-3--7-7-0-0-6-6-0-0-5-5-3-----------------------------|

D |--------------------------------------------------------------------------|
A |--------------------------------------------------------------------------|
F |--------------------------------------------------------------------------|
C |-7-7-0-0-6-6-0-0--7-7-0-0-6-6-0-0--7-7-0-0-6-6-0-0--7-7-0-0-6-6-0-0-------|
G |-7-7-0-0-6-6-0-0--7-7-0-0-6-6-0-0--7-7-0-0-6-6-0-0--7-7-0-0-6-6-0-0-------|
C |-7-7-0-0-6-6-0-0--7-7-0-0-6-6-0-0--7-7-0-0-6-6-0-0--7-7-0-0-6-6-0-0-------|

D |--------------------------------------------------------------------------|
A |--------------------------------------------------------------------------|
F |--------------------------------------------------------------------------|
C |-7-7-0-0-6-6-0-0-xxxx-7-7-0-0-6-6-0-0-xxx---------------------------------|
G |-7-7-0-0-6-6-0-0-xxxx-7-7-0-0-6-6-0-0-xxx---------------------------------|
C |-7-7-0-0-6-6-0-0-xxxx-7-7-0-0-6-6-0-0-xxx---------------------------------|

D |--------------------------------------------------------------------------|
A |--------------------------------------------------------------------------|
F |--------------------------------------------------------------------------|
C |-7-7-0-0-6-6-0-0-5-7-7-0-0-6-6-0-0--7-7-0-0-6-6-0-0-3-7-7-0-0-6-6-0-0-----|
G |-7-7-0-0-6-6-0-0-5-7-7-0-0-6-6-0-0--7-7-0-0-6-6-0-0-3-7-7-0-0-6-6-0-0-----|
C |-7-7-0-0-6-6-0-0---7-7-0-0-6-6-0-0--7-7-0-0-6-6-0-0---7-7-0-0-6-6-0-0-----|

D |--------------------------------------------------------------------------|
A |--------------------------------------------------------------------------|
F |--------------------------------------------------------------------------|
C |-7-7-0-0-6-6-0-0--7-7-0-0-6-6-0-0--7-7-0-0-6-6-0-0--3----7-7-0-0-6-6-0-0--|
G |-7-7-0-0-6-6-0-0--7-7-0-0-6-6-0-0--7-7-0-0-6-6-0-0--3----7-7-0-0-6-6-0-0--|
C |-7-7-0-0-6-6-0-0--7-7-0-0-6-6-0-0--7-7-0-0-6-6-0-0--3----7-7-0-0-6-6-0-0--|

D |-8-8-8-8-8-8-5b-5-5-5-3-3-3-3-3-3-3-3-3\1-1-1-1-1-1-----------------------|
A |--------------------------------------------------------------------------|
F |--------------------------------------------------------------------------|
C |--------------------------------------------------------------------------|
G |--------------------------------------------------------------------------|
C |--------------------------------------------------------------------------|

Not sure about this one:
D |--------------------------------------------------------------------------|
A |--------------------------------------------------------------------------|
F |--------------------------------------------------------------------------|
C |--------------------------------------------------------------------------|
G |--------------------------------------------------------------------------|
C |-3-5-3-5-3-5-3-5-0-1-0-1-0-1-0-1-3-5-3-5-3-5-3-5-0-1-0-1-0-1-0-1----------|

D |-----5-------5-------6-------6-------6-------6--------5-------------------|
A |---6---6---6---6---5---5---5---5---8---8---8----8---6---6-6p5---6p5-------|
F |-7-------7-------7-------7-------7-------7--------7-----------7-----7-5-7-|
C |--------------------------------------------------------------------------|
G |--------------------------------------------------------------------------|
C |--------------------------------------------------------------------------|

D |--------------------------------------------------------------------------|
A |--------------------------------------------------------------------------|
F |--------------------------------------------------------------------------|
C |-5/7-7-7-7-7-7-7-7-7\5-5-5-5-5-5-5-5-5/8-8-8-8-8-8-8-8-8\7-7-7-7-7-7-7-7--|
G |-5/7-7-7-7-7-7-7-7-7\5-5-5-5-5-5-5-5-5/8-8-8-8-8-8-8-8-8\7-7-7-7-7-7-7-7--|
C |-5/7-7-7-7-7-7-7-7-7\5-5-5-5-5-5-5-5-5/8-8-8-8-8-8-8-8-8\7-7-7-7-7-7-7-7--|

D |--------------------------------------------------------------------------|
A |--------------------------------------------------------------------------|
F |--------------------------------------------------------------------------|
C |-5/7-7-7-7-7-7-7-7-7\5-5-5-5-5-5-5-5-5/8-8-8-8-8-8-8-8-7-5-8-7-5----------|
G |-5/7-7-7-7-7-7-7-7-7\5-5-5-5-5-5-5-5-5/8-8-8-8-8-8-8-8-7-5-8-7-5----------|
C |-5/7-7-7-7-7-7-7-7-7\5-5-5-5-5-5-5-5-5/8-8-8-8-8-8-8-8-7-5-8-7-5----------|

D |--------------------------------------------------------------------------|
A |--------------------------------------------------------------------------|
F |--------------------------------------------------------------------------|
C |-5-6-7-0-5-6-7-0-5-6-7-0-5-3-0--5-6-7-0-5-6-7-0-5-6-7-0-5-3-0-------------|
G |-5-6-7-0-5-6-7-0-5-6-7-0-5-3-0--5-6-7-0-5-6-7-0-5-6-7-0-5-3-0-------------|
C |-5-6-7-0-5-6-7-0-5-6-7-0-5-3-0--5-6-7-0-5-6-7-0-5-6-7-0-5-3-0-------------|

D |--------------------------------------------------------------------------|
A |--------------------------------------------------------------------------|
F |--------------------------------------------------------------------------|
C |-5-6-7-0--5-6-3—-5/6\5-3-5-5/6\5--5-6-7-0--5-6-3—-5/6\5-3-5-5/6\5---------|
G |-5-6-7-0--5-6-3—-5/6\5-3-5-5/6\5--5-6-7-0--5-6-3—-5/6\5-3-5-5/6\5---------|
C |-5-6-7-0--5-6-3—-5/6\5-3-5-5/6\5--5-6-7-0--5-6-3—-5/6\5-3-5-5/6\5---------|
 
D |--------------------------------------------------------------------------|
A |--------------------------------------------------------------------------|
F |-----------------------2-0-----------------------2-0----------------------|
C |-7-7-0-0-6-6-0-0-5-5-3-----7-7-0-0-6-6-0-0-5-5-3--------------------------|
G |-7-7-0-0-6-6-0-0-5-5-3-----7-7-0-0-6-6-0-0-5-5-3--------------------------|
C |-7-7-0-0-6-6-0-0-5-5-3-----7-7-0-0-6-6-0-0-5-5-3--------------------------|

D |-----10-10-10-10----------------------------------------------------------|
A |---------------------10-10-10-10------------------------------------------|
F |--------------------------------------------------------------------------|
C |-0-0-------------0-0-------------0-0--------------------------------------|
G |-0-0-------------0-0-------------0-0--------------------------------------|
C |-0-0-------------0-0-------------0-0--------------------------------------|

D |--------------------------------------------------------------------------|
A |--------------------------------------------------------------------------|
F |--------------------------------------------------------------------------|
C |-7-7-0-0-6-6-0-0-5--7-7-0-0-6-6-0-0----7-7-0-0-6-6-0-0----7-7-0-0-6-6-0-0-|
G |-7-7-0-0-6-6-0-0----7-7-0-0-6-6-0-0----7-7-0-0-6-6-0-0----7-7-0-0-6-6-0-0-|
C |-7-7-0-0-6-6-0-0----7-7-0-0-6-6-0-0----7-7-0-0-6-6-0-0----7-7-0-0-6-6-0-0-|

D |--------------------------------------------------------------------------|
A |--------------------------------------------------------------------------|
F |--------------------------------------------------------------------------|
C |--------------------------------------------------------------------------|
G |--------------------------------------------------------------------------|
C |-5/7-00-00-00-0-3/5-7\5-3--5/7-00-00-00-0-3/5-7\5-3-----------------------|

D |--------------------------------------------------------------------------|
A |--------------------------------------------------------------------------|
F |--------------------------------------------------------------------------|
C |-5-5/6\5-3-7-0-0-0-0-0-0-5-5/6\5-3-7-0-0-0-0-0-0--------------------------|
G |-5-5/6\5-3-7-0-0-0-0-0-0-5-5/6\5-3-7-0-0-0-0-0-0--------------------------|
C |-5-5/6\5-3-7-0-0-0-0-0-0-5-5/6\5-3-7-0-0-0-0-0-0--------------------------|

D |--------------------------------------------------------------------------|
A |--------------------------------------------------------------------------|
F |--------------------------------------------------------------------------|
C |-5-6-7-0-5-6-7-0-5-6-3-3-3-3-3--5-6-7-0-5-6-7-0-5-6-3-3-3-3-3-------------|
G |-5-6-7-0-5-6-7-0-5-6-3-3-3-3-3--5-6-7-0-5-6-7-0-5-6-3-3-3-3-3-------------|
C |-5-6-7-0-5-6-7-0-5-6-3-3-3-3-3--5-6-7-0-5-6-7-0-5-6-3-3-3-3-3-------------|

D |--------------------------------------------------------------------------|
A |--------------------------------------------------------------------------|
F |--------------------------------------------------------------------------|
C |-5-5/6\5-3-5-7-0-0-0-5-5/6\5-3-5-7-0-0-0----------------------------------|
G |-5-5/6\5-3-5-7-0-0-0-5-5/6\5-3-5-7-0-0-0----------------------------------|
C |-5-5/6\5-3-5-7-0-0-0-5-5/6\5-3-5-7-0-0-0----------------------------------|

D |--------------------------------------------------------------------------|
A |--------------------------------------------------------------------------|
F |--------------------------------------------------------------------------|
C |-5-6-7-0-5-6-7-0-5-6-0-0-0-0-0-0-5-6-7-0-5-6-7-0-5-6-0-0-0-0-0-0----------|
G |-5-6-7-0-5-6-7-0-5-6-0-0-0-0-0-0-5-6-7-0-5-6-7-0-5-6-0-0-0-0-0-0----------|
C |-5-6-7-0-5-6-7-0-5-6-0-0-0-0-0-0-5-6-7-0-5-6-7-0-5-6-0-0-0-0-0-0----------|

D |--------------------------------------------------------------------------|
A |--------------------------------------------------------------------------|
F |--------------------------------------------------------------------------|
C |-5-6-7-0-5-6-7-0-5-6-7-7-7-7-7-7------------------------------------------|
G |-5-6-7-0-5-6-7-0-5-6-7-7-7-7-7-7------------------------------------------|
C |-5-6-7-0-5-6-7-0-5-6-7-7-7-7-7-7------------------------------------------|

D |-------|
A |-------|
F |-------|
C |-7-6-3-|
G |-7-6-3-|
C |-7-6-3-|

D |------------------------------------|
A |-8brbrbrbrbrbrbrbrbrbrbrbr--6-8/9---|
F |----------------------------5-7/8---|
C |----------------------------3-6/7---|
G |------------------------------------|
C |------------------------------------|
            
Hard to play? Try these video lessons and learn fast. | Correct




comments powered by Disqus
↑ Back to top | Tablatures and chords are parodies/interpretations of the original songs. You may use it for private study, scholarship, research or language learning purposes only