>
 >
Bitch 4

Bitch 4 Guitar Tabs

Meredith Brooks - Bitch 4 chords, tabs, tablatures, lyrics

Guitar lessons | Add/correct | Request | Top 50 tabs Artists:  A B C D E F G H I J K L M N O P Q R S T U V W X Y Z 0-9

Bitch 4 Guitar Tabs – Meredith Brooks

CD, Sheet music, Poster

Do you like Bitch 4? Share with your friends now
Bass TabsChordsChords v2Chords v3Chords v4Chords v5TabsTabs v2Tabs v3Tabs v4UkuleleUkulele v2
Bitch - Acoustic Record (2nd Version)                                     



     A5               E5     D5                  A5               E5     D5                
     ^             ^         ^                   ^             ^  ^      ^                 
     H        Q    S  E.     W                   H        Q    S  E.     W                 
E||-----------------------|-------------------|-----------------------|-------------------|
B||-----------------------|-------------------|-----------------------|-------------------|
G||--2-------------0h-2---|--2----------------|--2-------------0h-2---|--2----------------|
D||--2-------------0h-2---|--0----------------|--2-------------0h-2---|--0----------------|
A||--0--------------------|-------------------|--0--------------------|-------------------|
E||-----------------------|-------------------|-----------------------|-------------------|


  A5               E5     D5                  A5               E5     D5                  F#m               
  ^             ^         ^                   ^             ^         ^                   ^                 
  H        Q    S  E.     W                   H        Q    S  E.     W                   W                 
-----------------------|-------------------|-----------------------|-------------------|-------------------|
-----------------------|-------------------|-----------------------|--3----------------|--2----------------|
--2-------------0h-2---|--2----------------|--2-------------0h-2---|--2----------------|--2----------------|
--2-------------0h-2---|--0----------------|--2-------------0h-2---|--0----------------|--4----------------|
--0--------------------|-------------------|--0--------------------|-------------------|--4----------------|
-----------------------|-------------------|-----------------------|-------------------|--2----------------|


  Bsus2                  D/A                 A5                        D5                      
  ^            ^  ^ v    ^                   ^       ^    ^  ^         ^       ^      ^   ^    
  H.           E  S S    W                   Q    E  Q    E  S  E.     Q    E  Q.     E   E    
--------------------2-|-------------------|-------------------------|-------------------------|
--2------------2----5-|--7----------------|-------------------------|-------------------------|
--4------------4--4-4-|--7----------------|--2----x--2----2--0h-2---|--2----x--2------2--(0)--|
--4------------4--4-4-|--7----------------|--2----x--2----2--0h-2---|--0----x--0------0--(0)--|
--2------------2--2---|--5----------------|--0----x--0----0---------|-------------------------|
--2------------2--2---|--5----------------|-------------------------|-------------------------|


  A5                        D5                        F#m                        F#sus4                     
  ^       ^    ^  ^         ^       ^      ^   ^      ^       ^      ^  ^  v     ^         ^      ^  ^  v   
  Q    E  Q    E  S  E.     Q    E  Q.     E   E      Q    E  Q.     E  S  S     Q      E  Q.     E  S  S   
-------------------------|-------------------------|--2----x--2------2--------|--2------x--2------2--------|
-------------------------|-------------------------|--2----x--2------2--------|--2------x--2------2--------|
--2----x--2----2--0h-2---|--2----x--2------2--(0)--|--2----x--2------2--2-(2)-|--4------x--4------4--2-(2)-|
--2----x--2----2--0h-2---|--0----x--0------0--(0)--|--4----x--4------4--2-(2)-|--4------x--4------4--4-(4)-|
--0----x--0----0---------|-------------------------|--4----x--4------4--4-(4)-|--2------x--2------2--2-(2)-|
-------------------------|-------------------------|--2----x--2------2--2-(2)-|--2------x--2------2--2-(2)-|


  D                   D/A                                      A                         
  ^       ^       ^   ^   v     ^  ^  ^  ^  ^  ^  v  ^         ^   v      ^  ^    ^  ^   
  Q    E  Q    E  E   S   S     E  E  E  E  E  S  S  E   E     E.  S  E   E  Q    E  E   
-----------------------------|-----------------------x------|---------------------------|
--7----x--7----x--7----------|--7--7--7--7--x--x-(x)-x------|--5---5-(x)--5--5----5-----|
--7----x--7----x--7--(7)-(7)-|--7--7--7--7--x--x-(x)-x------|--6---6-(x)--6--6----6--6--|
--7----x--7----x--7--(7)-(7)-|--7--7--7--7--x--x-(x)-x---x--|--7---7-(x)--7--7----7--7--|
--5----x--5----x--5--(5)-(5)-|--5--5--5--5--x--x-(x)-x---x--|--7---7-(x)--7--7----7--5--|
--5----x--5----x--5--(5)-(5)-|--5--5--5--5--x--x-(x)-5\--x--|--5---5-(x)--5--5----5--5--|


  E                            F#sus4                                       D/A                       
  ^   v      ^        ^  ^     ^      v      v  v   ^   v   ^   v  ^  ^     ^   v      ^       ^  ^   
  E.  S  E   S Q    S E  E     E.     S  E   S  S   S   S   S   S  E  E     E.  S  E   Q    E  E  E   
----------------------------|------------------(2)-(2)-(2)-(2)-(2)-------|---------------------------|
--0---0-(x)--0--------0-----|--2------2-(x)--2-(2)-(2)-(2)-(2)-(2)-2-----|--7---7-(x)--7-------7-----|
--1---1-(x)--1--------1--1--|--4------4-(x)--4---------------------4--4--|--7---7-(x)--7-------7--7--|
--2---2-(x)--2--------2--2--|--4------4-(x)--4---------------------4--4--|--7---7-(x)--7-------7--7--|
--2---2-(x)--2--------2--2--|--2------2-(x)--2---------------------2--2--|--5---5-(x)--7-------5--5--|
--0---0-(x)--0--------0--0--|--2------2-(x)--2---------------------2--2--|--5---5-(x)--5-------5--5--|


  A                           E                           F#m                       
  ^   v      ^       ^  ^     ^   v      ^    ^  ^  ^     ^   v      ^       ^  ^   
  E.  S  E   Q    E  E  E     E.  S  E   Q    E  E  E     E.  S  E   Q    E  E  E   
---------------------------|---------------------------|---------------------------|
--5---5-(x)--5-------5-----|--0---0-(x)--0----0--0-----|--2---2-(x)--2-------2-----|
--6---6-(x)--6-------6--6--|--1---1-(x)--1----1--1--0--|--2---2-(x)--2-------2--2--|
--7---7-(x)--7-------7--5--|--2---2-(x)--2----2--2--0--|--4---4-(x)--4-------4--4--|
--7---7-(x)--7-------7--7--|--2---2-(x)--2----2--2--0--|--4---4-(x)--4-------4--4--|
--5---5-(x)--5-------5--5--|--0---0-(x)--0----0--0--0--|--2---2-(x)--2-------2--2--|


  D/A                            A5                        D5                        A5                      
  ^   v          v      ^  ^     ^       ^    ^  ^         ^       ^      ^   ^      ^       ^    ^  ^       
  E.  S  E    S  Q    S E  E     Q    E  Q    E  S  E.     Q    E  Q.     E   E      Q    E  Q    E  S  E.   
------------------------------|-------------------------|-------------------------|-------------------------|
--7---7-(x)--(x)-7------7-----|-------------------------|-------------------------|-------------------------|
--7---7-(x)--(x)-7------7--7--|--2----x--2----2--0h-2---|--2----x--2------2--(0)--|--2----x--2----2--0h-2---|
--7---7-(x)--(x)-7------7--7--|--2----x--2----2--0h-2---|--0----x--0------0--(0)--|--2----x--2----2--0h-2---|
--5---5-(x)--(x)-5------5--5--|--0----x--0----0---------|-------------------------|--0----x--0----0---------|
--5---5-(x)--(x)-5------5--5--|-------------------------|-------------------------|-------------------------|


  D5                        F#m                                             D                         
  ^       ^      ^   ^      ^       ^      ^  ^     ^       ^      ^  ^     ^       ^       ^  ^  v   
  Q    E  Q.     E   E      Q    E  Q.     E  E     Q    E  Q.     E  E     Q    E  Q    E  E  S  S   
-------------------------|--2----x--2------2-----|--2----x--2------2-----|--2----x--2----x--2--2-(2)-|
-------------------------|--2----x--2------2-----|--2----x--2------2-----|--3----x--3----x--3--3-(3)-|
--2----x--2------2--(0)--|--2----x--2------2--2--|--4----x--4------4--2--|--2----x--2----x--2--2-(2)-|
--0----x--0------0--(0)--|--4----x--4------4--2--|--4----x--4------4--2--|--0----x--0----x--0--0-(0)-|
-------------------------|--4----x--4------4--2--|--2----x--2------2--2--|---------------------------|
-------------------------|--2----x--2------2--2--|--2----x--2------2--2--|---------------------------|


                                 A                            E                          
  ^  ^  ^  ^  ^  ^  v            ^   v      v ^      ^  ^     ^   v      ^        ^  ^   
  E  E  E  E  E  S  S  E   E     E.  S  E   S Q    S E  E     E.  S  E   S Q    S E  E   
--2--2--2--2--x--x-(x)-x------|----------------------------|----------------------------|
--3--3--3--3--x--x-(x)-x------|--5---5-(x)--5--------5-----|--0---0-(x)--0--------0-----|
--2--2--2--2--x--x-(x)-x------|--6---6-(x)--6--------6--6--|--1---1-(x)--1--------1--1--|
--0--0--0--0--x--x-(x)-x---x--|--7---7-(x)--7--------7--5--|--2---2-(x)--2--------2--2--|
-----------------------x---x--|--7---7-(x)--7--------7--7--|--2---2-(x)--2--------2--2--|
-----------------------5\--x--|--5---5-(x)--5--------5--5--|--0---0-(x)--0--------0--0--|


  F#sus4                                       D/A                         A                         
  ^      v      ^  v   ^   v   ^   v  ^  ^     ^   v      ^       ^  ^     ^   v      ^       ^  ^   
  E.     S  E   S  S   S   S   S   S  E  E     E.  S  E   Q    E  E  E     E.  S  E   Q    E  E  E   
------------------(2)-(2)-(2)-(2)-(2)-------|---------------------------|---------------------------|
--2------2-(x)--2-(2)-(2)-(2)-(2)-(2)-2-----|--7---7-(x)--7-------7-----|--5---5-(x)--5-------5-----|
--4------4-(x)--4---------------------4--4--|--7---7-(x)--7-------7--7--|--6---6-(x)--6-------6--6--|
--4------4-(x)--4---------------------4--4--|--7---7-(x)--7-------7--7--|--7---7-(x)--7-------7--5--|
--2------2-(x)--2---------------------2--2--|--5---5-(x)--7-------5--5--|--7---7-(x)--7-------7--7--|
--2------2-(x)--2---------------------2--2--|--5---5-(x)--5-------5--5--|--5---5-(x)--5-------5--5--|


  E                           F#m                         D/A                               
  ^   v      ^       ^  ^     ^   v      ^       ^  ^     ^   v ^    v  v  v  ^   v  ^  v   
  E.  S  E   Q    E  E  E     E.  S  E   Q    E  E  E     E.  S E  S E  E  S  S   S  S  S   
---------------------------|---------------------------|-----------------------------------|
--0---0-(x)--0-------0-----|--2---2-(x)--2-------2-----|--7---7-7--x-7--7--7---------------|
--1---1-(x)--1-------1--0--|--2---2-(x)--2-------2--2--|--7---7-7--x-7--7--7-(7)--7--------|
--2---2-(x)--2-------2--0--|--4---4-(x)--4-------4--4--|--7---7-7--x-7--7--7--7---7--7--7--|
--2---2-(x)--2-------2--0--|--4---4-(x)--4-------4--4--|--5---5-5--x-5--5--5--5---5--5--5--|
--0---0-(x)--0-------0--0--|--2---2-(x)--2-------2--2--|--5---5-5--x-5--5--5--5--(5)-5-(5)-|


  A                           E                           F#m                                       
  ^ v ^  ^ v ^  ^    ^  ^     ^  ^ v ^  ^  ^     ^        ^    v  ^ v  v  v ^  v  ^ v  v ^ v ^      
  S S E  S S E  Q    E  E     E  S S E  E  E  E  E  E     S    S  S S  S  S S  S  S E  S S S S  S   
--x-x-5--x-x-5--5----5-----|--0--x-x-0--x--0-----0-----|--2---(2)-2-2-(2)-2-2-(2)-2-2--2-2-2-------|
--x-x-5--x-x-5--5----5-----|--0--x-x-0--x--0-----0-----|--2---(2)-2-2-(2)-2-2-(2)-2-2--2-2-2-2-(x)-|
--x-x-6--x-x-6--6----6--6--|--1--x-x-2--x--2-----1-----|--2---------2-------2-------2--2-2-2-2-(x)-|
--x-x-7--x-x-7--7----7--7--|--2--x-x-2--x--2-----2-----|--4---------4-------4-------4--4-4-4-2-(x)-|
--x-x-7--x-x-7--7----7--7--|--2--x-x-2--x--2-----2-----|--4---------4-------4-------4--4-4-4-2-(x)-|
--x-x-5--x-x-5--5----5--5--|--0--x-x-0--x--0-----0-----|--2---------2-------2-------2--2-2-2-2-(x)-|


  D                                E5                                                  
  ^ v ^   ^   v  ^  ^  ^  ^  ^     ^  ^  ^  ^  ^  ^  ^  ^     ^  ^  ^  ^  ^  ^  ^  ^   
  S S E   S   S  E  E  E  E  E     E  E  E  E  E  E  E  E     E  E  E  E  E  E  E  E   
------2--(2)-(2)-3--3--2--2--0--|--------------------------|--------------------------|
--x-x-3--(3)-(3)-3--3--3--3--3--|--------------------------|--------------------------|
--x-x-2----------2--2--2--2--2--|--------------------------|--------------------------|
------0----------0--0--0--0--0--|--2--2--2--2--2--2--2--2--|--2--2--2--2--2--2--2--2--|
--------------------------------|--2--2--2--2--2--2--2--2--|--2--2--2--2--2--2--2--2--|
--------------------------------|--0--0--0--0--0--0--0--0--|--0--0--0--0--0--0--0--0--|


   F#m                                D                             E5                       
   ^     v        ^         ^   ^     ^   v      ^       ^   ^      ^  ^  ^  ^      ^   ^    
   E.    S   E    Q     E   E   E     E.  S  E   Q    E  E   E      E  E  E  Q.     E   E    
--(2)---(2)------(2)-------(2)-----|--2---2-(x)--2-------2--(0)--|--------------------------|
---2-----2--(x)---2---------2------|--3---3-(x)--3-------3--(0)--|--------------------------|
---2-----2--(x)---2---------2---2--|--2---2-(x)--2-------2--(0)--|--------------------------|
---4-----4--(x)---4---------4---4--|--0---0-(x)--0-------0--(0)--|--2--2--2--2------2--(0)--|
---4-----4--(x)---4---------4---4--|-----------------------------|--2--2--2--2------2--(0)--|
---2-----2--(x)---2---------2---2--|-----------------------------|--0--0--0--0------0--(0)--|


   F#m                                    D/A                                        
   ^     v        ^      ^    ^    ^      ^    ^  ^  ^  ^  ^       v                 
   E.    S   E    Q      E    E    E      Q    E  E  E  E  Q       W                 
--(2)---(2)------(2)----(2)--(2)-------|--5-------5--5--5--5----|-------------------|
---2-----2--(x)---2------2----2--------|--7-------7--7--7--7----|-------------------|
---2-----2--(x)---2------2----2---(0)--|--7----7--7--7--7--7----|-------------------|
---4-----4--(x)---4------4----4---(0)--|--7----7--7--7--7--7----|-------------------|
---4-----4--(x)---4------4----4---(0)--|--5----5--5--5--5--5----|-------------------|
---2-----2--(x)---2------2----2---(0)--|--5----5--5--5--5--5----|-------------------|


  A                            E                            F#sus4                                     
  ^   v      v ^      ^  ^     ^   v      ^        ^  ^     ^      v      v  v   ^   v   ^   v  ^  ^   
  E.  S  E   S Q    S E  E     E.  S  E   S Q    S E  E     E.     S  E   S  S   S   S   S   S  E  E   
----------------------------|----------------------------|------------------(2)-(2)-(2)-(2)-(2)-------|
--5---5-(x)--5--------5-----|--0---0-(x)--0--------0-----|--2------2-(x)--2-(2)-(2)-(2)-(2)-(2)-2-----|
--6---6-(x)--6--------6--6--|--1---1-(x)--1--------1--1--|--4------4-(x)--4---------------------4--4--|
--7---7-(x)--7--------7--5--|--2---2-(x)--2--------2--2--|--4------4-(x)--4---------------------4--4--|
--7---7-(x)--7--------7--7--|--2---2-(x)--2--------2--2--|--2------2-(x)--2---------------------2--2--|
--5---5--x---5--------5--5--|--0---0-(x)--0--------0--0--|--2------2-(x)--2---------------------2--2--|


  D/A                         A                           E                         
  ^   v      ^       ^  ^     ^   v      ^       ^  ^     ^   v      ^    ^  ^  ^   
  E.  S  E   Q    E  E  E     E.  S  E   Q    E  E  E     E.  S  E   Q    E  E  E   
---------------------------|---------------------------|---------------------------|
--7---7-(x)--7-------7-----|--5---5-(x)--5-------5-----|--0---0-(x)--0----0--0-----|
--7---7-(x)--7-------7--7--|--6---6-(x)--6-------6--6--|--1---1-(x)--1----1--1--0--|
--7---7-(x)--7-------7--7--|--7---7-(x)--7-------7--5--|--2---2-(x)--2----2--2--0--|
--5---5-(x)--7-------5--5--|--7---7-(x)--7-------7--7--|--2---2-(x)--2----2--2--0--|
--5---5-(x)--5-------5--5--|--5---5-(x)--5-------5--5--|--0---0-(x)--0----0--0--0--|


  F#m                         D/A                            A                          
  ^   v      ^       ^  ^     ^   v          v      ^  ^     ^   v      ^ ^      ^  ^   
  E.  S  E   Q    E  E  E     E.  S  E    S  Q    S E  E     E.  S  E   S Q    S E  E   
---------------------------|------------------------------|----------------------------|
--2---2-(x)--2-------2-----|--7---7-(x)--(x)-7------7-----|--5---5-(x)--5--------5-----|
--2---2-(x)--2-------2--2--|--7---7-(x)--(x)-7------7--7--|--6---6-(x)--6--------6--6--|
--4---4-(x)--4-------4--4--|--7---7-(x)--(x)-7------7--7--|--7---7-(x)--7--------7--5--|
--4---4-(x)--4-------4--4--|--5---5-(x)--(x)-5------5--5--|--7---7-(x)--7--------7--7--|
--2---2-(x)--2-------2--2--|--5---5-(x)--(x)-5------5--5--|--5---5--x---5--------5--5--|


  E                            F#sus4                                       D/A                       
  ^   v      ^        ^  ^     ^      v      ^  v   ^   v   ^   v  ^  ^     ^   v      ^       ^  ^   
  E.  S  E   S Q    S E  E     E.     S  E   S  S   S   S   S   S  E  E     E.  S  E   Q    E  E  E   
----------------------------|------------------(2)-(2)-(2)-(2)-(2)-------|---------------------------|
--0---0-(x)--0--------0-----|--2------2-(x)--2-(2)-(2)-(2)-(2)-(2)-2-----|--7---7-(x)--7-------7-----|
--1---1-(x)--1--------1--1--|--4------4-(x)--4---------------------4--4--|--7---7-(x)--7-------7--7--|
--2---2-(x)--2--------2--2--|--4------4-(x)--4---------------------4--4--|--7---7-(x)--7-------7--7--|
--2---2-(x)--2--------2--2--|--2------2-(x)--2---------------------2--2--|--5---5-(x)--7-------5--5--|
--0---0-(x)--0--------0--0--|--2------2-(x)--2---------------------2--2--|--5---5-(x)--5-------5--5--|


  A                           E                           F#m                       
  ^   v      ^       ^  ^     ^   v      ^       ^  ^     ^   v      ^       ^  ^   
  E.  S  E   Q    E  E  E     E.  S  E   Q    E  E  E     E.  S  E   Q    E  E  E   
---------------------------|---------------------------|---------------------------|
--5---5-(x)--5-------5-----|--0---0-(x)--0-------0-----|--2---2-(x)--2-------2-----|
--6---6-(x)--6-------6--6--|--1---1-(x)--1-------1--0--|--2---2-(x)--2-------2--2--|
--7---7-(x)--7-------7--5--|--2---2-(x)--2-------2--0--|--4---4-(x)--4-------4--4--|
--7---7-(x)--7-------7--7--|--2---2-(x)--2-------2--0--|--4---4-(x)--4-------4--4--|
--5---5-(x)--5-------5--5--|--0---0-(x)--0-------0--0--|--2---2-(x)--2-------2--2--|


  D/A                           A                           E                         
  ^   v      ^    ^  ^ v ^ v    ^ v ^  ^ v ^  ^    ^  ^     ^  ^ v ^  ^  ^     ^      
  E.  S  E   Q    E  S S S S    S S E  S S E  Q    E  E     E  S S E  E  E  E  E  E   
-----------------------------|--x-x-5--x-x-5--5----5-----|--0--x-x-0--x--0-----0-----|
--7---7-(x)--7----7--7-7-----|--x-x-5--x-x-5--5----5-----|--0--x-x-0--x--0-----0-----|
--7---7-(x)--7----7--7-7-7-7-|--x-x-6--x-x-6--6----6--6--|--1--x-x-2--x--2-----1-----|
--7---7-(x)--7----7--7-7-7-7-|--x-x-7--x-x-7--7----7--7--|--2--x-x-2--x--2-----2-----|
--5---5-(x)--5----5--5-5-5-5-|--x-x-7--x-x-7--7----7--7--|--2--x-x-2--x--2-----2-----|
--5---5-(x)--5----5--5-5-5-5-|--x-x-5--x-x-5--5----5--5--|--0--x-x-0--x--0-----0-----|


  F#m                                         D                                Asus2             
  ^    v  ^ v  v  v ^  v  ^ v  v ^ v ^        ^ v ^   ^   v  ^  ^  ^  ^  ^     ^                 
  S    S  S S  S  S S  S  S E  S S S S  S     S S E   S   S  E  E  E  E  E     W                 
--2---(2)-2-2-(2)-2-2-(2)-2-2--2-2-2-------|------2--(2)-(2)-3--3--2--2--0--|--0----------------|
--2---(2)-2-2-(2)-2-2-(2)-2-2--2-2-2-2-(x)-|--x-x-3--(3)-(3)-3--3--3--3--3--|--0----------------|
--2---------2-------2-------2--2-2-2-2-(x)-|--x-x-2----------2--2--2--2--2--|--2----------------|
--4---------4-------4-------4--4-4-4-2-(x)-|------0----------0--0--0--0--0--|--2----------------|
--4---------4-------4-------4--4-4-4-2-(x)-|--------------------------------|--0----------------|
--2---------2-------2-------2--2-2-2-2-(x)-|--------------------------------|-------------------|



Duration -egend
---------------
W - whole
H - half
Q - quarter
E - 8th
S - 16th
T - 32nd
X - 64th
. - note dotted
|-n-|  - n-tuplets


Tab-ature -egend
----------------
- - tied note
x - dead note
g - grace note
(n) - ghost note
> - accentuded note
NH - natural harmonic
AH - artificial harmonic
TH - tapped harmonic
SH - semi harmonic
PH - pitch harmonic
h - hammer on
p - pull off
b - bend
br - bendRelease
pb - preBend
pbr - preBendRelease
brb - bendReleaseBend
\n/ - tremolo bar dip
\n - tremolo bar dive
-/n - tremolo bar Re-ease up
/n\ - tremolo bar inverted dip
/n - tremolo bar return
-\n - tremolo bar Re-ease down
S - shift slide
s - -egato slide
/ -  s-ide into from below or out of upwards
\ -  s-ide into from above or out of downwards
~ - vibrato
W - wide vibrato
tr - trill
TP - tremolo picking
T - tapping
S - slap
P - pop
< - fade in
^ - brush up
v - brush down





Comments


Popular Meredith Brooks tabs & chords
Bitch 5 Chords
Crazy Chords
Somedays Chords Chords
Wash My Hands Chords
What Would Happen Chords
Bitch 1 Tabs
Bitch 2 Ukulele
Crazy Ukulele
Im A Bitch Im A Lover Ukulele
What Would Happen Ukulele


Song lyrics



↑ Back to top | Tablatures and chords are parodies/interpretations of the original songs. You may use it for private study, scholarship, research or language learning purposes only
© 2014 AZChords.com Contact us | Privacy policy | DMCA | Add/correct tabs | Request tabs | Top 50 tabs