» » »

Meredith Brooks, Im A Bitch Tabs (ver.1)

Artists:  A B C D E F G H I J K L M N O P Q R S T U V W X Y Z # 

Im A Bitch Tabs (ver.1)

Meredith Brooks Tabs
 Rating:
4/5 (4 votes)
Im A Bitch lessons Tabs too difficult? Try these video lessons and learn fast
                This tab was for a 2. or 3. guitar in the Band. I play this in my Band. I think its sounded good.
But i hate the Solo. Its not easy to play and not easy to write a tab of it.



Strophe (clean):

e :------------------|    
b :------------------|
g :------------------|
d :------------------|
A :----7--5----------|
E :-5----------------| x2  

e :------------------|
b :------------------|
g :------------------|
d :------------------|
A :----2-------------|
E :-2-----2----------|




Chorus (disortion):

e :--------------------|
b :--------------------|
g :--------------------|
d :--------------------|
A :------7----2----5---|
E :-5------------------| 

e :--------------------|
b :--------------------|
g :--------------------|
d :--------------------|
A :------7----9----5---|
E :-5------------------|


Solo:

e :------------------
b :-10-12-12-12-12--10-10-10-10--7-7-7-7--5-5-5-5-5-7-7-7-7-7-5-5-5-5-3
g :------------------
d :------------------
A :------------------
E :------------------
                                                         up---down
e :---------------------------------------------10---10--10.11.12--10-12-10-----10--10
b :--10-12-12-12-12-10-10-14-14-10-10-12-12--11----11-----------------------11--11---9
g :-----------------------------------------------------------------------------------
d :-----------------------------------------------------------------------------------
A :-----------------------------------------------------------------------------------
E :-----------------------------------------------------------------------------------

e :-----------------------------------------------------------------------------------
b :--9-slide-11-9---------------------------------------------------------------------
g :-----------------12-9-12-----------------------------------------------------------
d :-----------------------------------------------------------------------------------
A :-----------------------------------------------------------------------------------
E :-----------------------------------------------------------------------------------


    up----down
----10.11.12--
   
do you know what i mean with this? No. I can send you a Sheet with the Notes on it.
            
Submit corrections

comments powered by Disqus
↑ Back to top | Meredith Brooks Tabs for Im A Bitch. Lyrics for acoustic guitar and electric guitar. Tablatures and chords are parodies/interpretations of the original songs. You may use it for private study, scholarship, research or language learning purposes only