>
 >
Roses 2

Roses 2 Guitar Tabs

Meg And Dia - Roses 2 chords, tabs, tablatures, lyrics

Guitar lessons | Add/correct | Request | Top 50 tabs Artists:  A B C D E F G H I J K L M N O P Q R S T U V W X Y Z 0-9

Roses 2 Guitar Tabs – Meg And Dia

CD, Sheet music, Poster

Do you like Roses 2? Share with your friends now
ChordsTabsTabs v2Tabs v3Tabs v4Tabs v5Tabs v6Ukulele
Tab difficulty:  novice

This is my second tab of meg and dia
NOTE: i did a version of strawberry waltz(meg and dia) and trust me you wont be
its fun to play and not that hard :] sorry if i suck ^^' i only do full song and if i 
song
are not full then just wait for the updates for me to finish just im very busy < (this 
is only for those who wanna look at my tabs and some that might be half way threw the process)


ATTENTION!!!!!!!!
i have videos on learning the tabs i posted up 
and im also taking any request i can try to make.
Links: in order from PART 1----PART 4

my first attempt and bloopers xD

tuning: standard
key:
hammer-on: h
pull-off:p
pull-up : ^
pm(palm mute): .
slide up: /
slide down: \

note: the intro plays both Guitar lead and the Guitar rythum like in the verses

INTRO:

Guitar 1:lead
e|--0-0-0-0-0-0---------7-7-7-5-5-5--4-4---0-0-0-0-0-0---------0-0-0----0---0-0-0-0-----|
B|--5-5-5-4-4-4--0-0----0-0-0-0-0-0--0-0---5-5-5-4-4-4--0-0----7-7-7----7^9-9-9-9-7\0---|
G|---------------4-4------------------------------------4-4-----------------------------|
D|--------------------------------------------------------------------------------------|
A|--------------------------------------------------------------------------------------|
E|--------------------------------------------------------------------------------------|
 damn! ok the 7^9 might be confusing for u but when ur pulling up ^ hold it and hit the
then pull down and slide to 0

1st VERSE:
Guitar 2: rythum
e|--------------------------------------------------------------|
B|--------------------------------------------------------------|
G|--------------------------------------------------------------|
D|--6-6---6-6-6-6---6-6----6-6-6-6---6-6---6-6-6-6--------------|
A|--4-4---4-4-4-4---4-4----4-4-4-4---4-4---4-4-4-4--------------|
E|--------------------------------------------------------------|
    . .   . . . .   . .    . . . .   . .   . . . .

    Turn   around  there's   those   eyes  again.


Guitar 2: rythum
e|--------------------------------------------------------------|
B|--------------------------------------------------------------|
G|--------------------------------------------------------------|
D|--2-2---2-2-2-2---2-2----2-2-2-2---2-2---2-2-2-2--------------|
A|--0-0---0-0-0-0---0-0----0-0-0-0---0-0---0-0-0-0--------------|
E|--------------------------------------------------------------|
    . .   . . . .   . .    . . . .   . .   . . . .
   Turn around fake indifference and I.

Guitar 2: rythum
e|--------------------------------------------------------------|
B|--------------------------------------------------------------|
G|--------------------------------------------------------------|
D|--6-6---6-6-6-6---6-6----6-6-6-6---6-6---6-6-6-6--------------|
A|--4-4---4-4-4-4---4-4----4-4-4-4---4-4---4-4-4-4--------------|
E|--------------------------------------------------------------|
    . .   . . . .   . .    . . . .   . .   . . . .
Watch their cold, dark silhouettes

Guitar 2: rythum
e|--------------------------------------------------------------|
B|--------------------------------------------------------------|
G|--------------------------------------------------------------|
D|--2-2---2-2-2-2---2-2----2-2-2-2---2-2---2-2-2-2--------------|
A|--0-0---0-0-0-0---0-0----0-0-0-0---0-0---0-0-0-0--------------|
E|--------------------------------------------------------------|
    . .   . . . .   . .    . . . .   . .   . . . .
Guitar 1: Lead
e|-------------------------|
B|------------------12/0---|
G|------------------13/0---|
D|----------9--11----------|
A|--9--11------------------|
E|-------------------------|
        (for the both guitars listen to the timing on the lead after vocals)
disappear.

Guitar 2: rythum
e|--------------------------------------------------------------|
B|--------------------------------------------------------------|
G|--------------------------------------------------------------|
D|--6-6---6-6-6-6---6-6----6-6-6-6---6-6---6-6-6-6--------------|
A|--4-4---4-4-4-4---4-4----4-4-4-4---4-4---4-4-4-4--------------|
E|--------------------------------------------------------------|
          . . . .          . . . .         . . . .

(Note: notice the palm putes change ^ k )
 A    hundred   bodies   fill   this   room.

Guitar 2: rythum
e|--------------------------------------------------------------|
B|--------------------------------------------------------------|
G|--------------------------------------------------------------|
D|--2-2---2-2-2-2---2-2----2-2-2-2---2-2---2-2-2-2--------------|
A|--0-0---0-0-0-0---0-0----0-0-0-0---0-0---0-0-0-0--------------|
E|--------------------------------------------------------------|
          . . . .          . . . .         . . . .
(Note: again palm mute changes)

Guitar 1: Lead
e|----------------------------------|
B|----------------------------------|
G|----------------------------------|
D|---------2----------2---------2---|
A|--2--4-------2--4-------2--4------|
E|----------------------------------|
And all their faces overdone.

Guitar 2: rythum
e|--------------------------------------------------------------|
B|--------------------------------------------------------------|
G|--------------------------------------------------------------|
D|--6-6---6-6-6-6---6-6----6-6-6-6---6-6---6-6-6-6--------------|
A|--4-4---4-4-4-4---4-4----4-4-4-4---4-4---4-4-4-4--------------|
E|--------------------------------------------------------------|
          . . . .          . . . .         . . . .
    Pain       is        foreign,

Guitar 2: rythum
e|-------------------------------------------|
B|-------------------------------------------|
G|-------------------------------------------|
D|--2-2---2-2-2-2---2-2-2-2-2-2-2-2----------|
A|--0-0---0-0-0-0---0-0-0-0-0-0-0-0----------|
E|-------------------------------------------|
          . . . .
Guitar 1: Lead
e|----------------------------------|
B|----------------------------------|
G|----------------------------------|
D|---------2----------2---------2---|
A|--2--4-------2--4-------2--4------|
E|----------------------------------|
   foreign  to   us.


Pre-chorus:

Guitar 2: rythum
e|--7-7-7-7---5-5-5-5---5-5-5-5---7-7-7-7------|
B|--7-7-7-7---5-5-5-5---7-7-7-7---9-9-9-9------|
G|--9-9-9-9---6-6-6-6---7-7-7-7---9-9-9-9------|
D|--9-9-9-9---7-7-7-7---5-5-5-5---7-7-7-7------|
A|--7-7-7-7---5-5-5-5--------------------------|
E|---------------------------------------------|
          . . . .
(dia plays this ^ but its so freaken faint u can't hear it so sorry if u think its

Guitar 1: Lead
e|------7-------7-------7----------11--7-|
B|----9---9---7---7---9---9-----9--------|
G|--9-------8-------9-------8h9----------|
D|---------------------------------------|
A|---------------------------------------|
E|---------------------------------------|
I don't even know you.

Guitar 2: rythum
e|--7-7-7-7---5-5-5-5---5-5-5-5---7-7-7-7------|
B|--7-7-7-7---5-5-5-5---7-7-7-7---9-9-9-9------|
G|--9-9-9-9---6-6-6-6---7-7-7-7---9-9-9-9------|
D|--9-9-9-9---7-7-7-7---5-5-5-5---7-7-7-7------|
A|--7-7-7-7---5-5-5-5--------------------------|
E|---------------------------------------------|
Guitar 1: Lead
e|------7-------7-------7----------11--7-|
B|----9---9---7---7---9---9-----9--------|
G|--9-------8-------9-------8h9----------|
D|---------------------------------------|
A|---------------------------------------|
E|---------------------------------------|
You won't even know I'm gone.

Guitar 2: rythum
e|--2-2---2---2-2---2---2-2---2---2-2-2-2----5-5---5---5-5---5---5---|
B|--2-2---2---2-2---2---2-2---2---2-2-2-2----5-5---5---5-5---5---5---|
G|--3-3---3---3-3---3---3-3---3---3-3-3-3----6-6---6---6-6---6---5---|
D|--4-4---4---4-4---4---4-4---4---4-4-4-4----7-7---7---7-7---7---7---|
A|--4-4---4---4-4---4---4-4---4---4-4-4-4----7-7---7---7-7---7---7---|
E|--2-2---2---2-2---2---2-2---2---2-2-2-2----5-5---5---5-5---5---5---|
                  Was   it    something      I did wrong?

Chorus:

Guitar 2: rythum ( this is my version)
e|-----4---5---5---------------------|
B|-----4---5---5---------------------|
G|-1---5---6---5---------------------|
D|-2---6---7---7---------------------|
A|-2---6---7---7---------------------|
E|-0---4---5---5---------------------|
Roses, roses cold.

e|-----4---5---5---------------------|
B|-----4---5---5---------------------|
G|-1---5---6---5---------------------|
D|-2---6---7---7---------------------|
A|-2---6---7---7---------------------|
E|-0---4---5---5---------------------|
Roses, roses sold out.

Verse 2:
Guitar 2: rythum
e|--------------------------------------------------------------|
B|--------------------------------------------------------------|
G|--------------------------------------------------------------|
D|--6-6---6-6-6-6---6-6----6-6-6-6---6-6---6-6-6-6--------------|
A|--4-4---4-4-4-4---4-4----4-4-4-4---4-4---4-4-4-4--------------|
E|--------------------------------------------------------------|
    . .   . . . .   . .    . . . .   . .   . . . .
    Turn     around    reds   and   whites again.

Guitar 2: rythum
e|--------------------------------------------------------------|
B|--------------------------------------------------------------|
G|--------------------------------------------------------------|
D|--2-2---2-2-2-2---2-2----2-2-2-2---2-2---2-2-2-2--------------|
A|--0-0---0-0-0-0---0-0----0-0-0-0---0-0---0-0-0-0--------------|
E|--------------------------------------------------------------|
    . .   . . . .   . .    . . . .   . .   . . . .
Guitar 1: Lead
e|----------------------------------|
B|----------------------------------|
G|----------------------------------|
D|---------2----------2---------2---|
A|--2--4-------2--4-------2--4------|
E|----------------------------------|
I'd sell my kicks for one more low tar.

Guitar 2: rythum
e|--------------------------------------------------------------|
B|--------------------------------------------------------------|
G|--------------------------------------------------------------|
D|--6-6---6-6-6-6---6-6----6-6-6-6---6-6---6-6-6-6--------------|
A|--4-4---4-4-4-4---4-4----4-4-4-4---4-4---4-4-4-4--------------|
E|--------------------------------------------------------------|
    . .   . . . .   . .    . . . .   . .   . . . .
Fevers hand in hand with

Guitar 2: rythum
e|--------------------------------------------------------------|
B|--------------------------------------------------------------|
G|--------------------------------------------------------------|
D|--2-2---2-2-2-2---2-2----2-2-2-2---2-2---2-2-2-2--------------|
A|--0-0---0-0-0-0---0-0----0-0-0-0---0-0---0-0-0-0--------------|
E|--------------------------------------------------------------|
    . .   . . . .   . .    . . . .   . .   . . . .
Guitar 1: Lead
e|------------------------------|
B|---12-------------------------|
G|---11^13---13p9--------9/0----|
D|------------------11---11/0---|
A|------------------------------|
E|------------------------------|
shoelace bracelets.

Guitar 2: rythum
e|--------------------------------------------------------------|
B|--------------------------------------------------------------|
G|--------------------------------------------------------------|
D|--6-6---6-6-6-6---6-6----6-6-6-6---6-6---6-6-6-6--------------|
A|--4-4---4-4-4-4---4-4----4-4-4-4---4-4---4-4-4-4--------------|
E|--------------------------------------------------------------|
    . .   . . . .   . .    . . . .   . .   . . . .
Why are some girls so naive?


Guitar 2: rythum
e|--------------------------------------------------------------|
B|--------------------------------------------------------------|
G|--------------------------------------------------------------|
D|--2-2---2-2-2-2---2-2----2-2-2-2---2-2---2-2-2-2--------------|
A|--0-0---0-0-0-0---0-0----0-0-0-0---0-0---0-0-0-0--------------|
E|--------------------------------------------------------------|
    . .   . . . .   . .    . . . .   . .   . . . .
    He    didn't    unbutton   your    blouse  to see.

Guitar 2: rythum
e|--------------------------------------------------------------|
B|--------------------------------------------------------------|
G|--------------------------------------------------------------|
D|--6-6---6-6-6-6---6-6----6-6-6-6---6-6---6-6-6-6--------------|
A|--4-4---4-4-4-4---4-4----4-4-4-4---4-4---4-4-4-4--------------|
E|--------------------------------------------------------------|
    . .   . . . .   . .    . . . .   . .   . . . .
A better view of your heart.


Guitar 2: rythum
e|--------------------------------------------------------------|
B|--------------------------------------------------------------|
G|--------------------------------------------------------------|
D|--2-2---2-2-2-2---2-2----2-2-2-2---2-2---2-2-2-2--------------|
A|--0-0---0-0-0-0---0-0----0-0-0-0---0-0---0-0-0-0--------------|
E|--------------------------------------------------------------|
    . .   . . . .   . .    . . . .   . .   . . . .

Guitar 1: Lead
e|-------------------------|
B|-------------------------|
G|---8h9p8-----------------|
D|----------9--------------|
A|--------------11----9----|
E|-------------------------|
    . .   . . . .   . .    . . . .   . .   . . . .
Oh yeah, can't blame you for trying.

Pre-chorus:
Guitar 2: rythum
e|--7-7-7-7---5-5-5-5---5-5-5-5---7-7-7-7------|
B|--7-7-7-7---5-5-5-5---7-7-7-7---9-9-9-9------|
G|--9-9-9-9---6-6-6-6---7-7-7-7---9-9-9-9------|
D|--9-9-9-9---7-7-7-7---5-5-5-5---7-7-7-7------|
A|--7-7-7-7---5-5-5-5--------------------------|
E|---------------------------------------------|
Guitar 1: Lead
e|------7-------7-------7----------11--7-|
B|----9---9---7---7---9---9-----9--------|
G|--9-------8-------9-------8h9----------|
D|---------------------------------------|
A|---------------------------------------|
E|---------------------------------------|
I don't even know you.

Guitar 2: rythum
e|--7-7-7-7---5-5-5-5---5-5-5-5---7-7-7-7------|
B|--7-7-7-7---5-5-5-5---7-7-7-7---9-9-9-9------|
G|--9-9-9-9---6-6-6-6---7-7-7-7---9-9-9-9------|
D|--9-9-9-9---7-7-7-7---5-5-5-5---7-7-7-7------|
A|--7-7-7-7---5-5-5-5--------------------------|
E|---------------------------------------------|
Guitar 1: Lead
e|------7-------7-------7----------11--7-|
B|----9---9---7---7---9---9-----9--------|
G|--9-------8-------9-------8h9----------|
D|---------------------------------------|
A|---------------------------------------|
E|---------------------------------------|
You won't even know I'm gone.

Guitar 2: rythum
e|--2-2---2---2-2---2---2-2---2---2-2-2-2----5-5---5---5-5---5---5---|
B|--2-2---2---2-2---2---2-2---2---2-2-2-2----5-5---5---5-5---5---5---|
G|--3-3---3---3-3---3---3-3---3---3-3-3-3----6-6---6---6-6---6---5---|
D|--4-4---4---4-4---4---4-4---4---4-4-4-4----7-7---7---7-7---7---7---|
A|--4-4---4---4-4---4---4-4---4---4-4-4-4----7-7---7---7-7---7---7---|
E|--2-2---2---2-2---2---2-2---2---2-2-2-2----5-5---5---5-5---5---5---|
Was it something I did wrong?

Chorus:

Guitar 2: rythum
e|-----------4-4-4-4---5-5-5-5---5-5-5-5-------------|
B|-----------4-4-4-4---5-5-5-5---5-5-5-5-------------|
G|-1-1-1-1---5-5-5-5---6-6-6-6---5-5-5-5-------------|
D|-2-2-2-2---6-6-6-6---7-7-7-7---7-7-7-7-------------|
A|-2-2-2-2---6-6-6-6---7-7-7-7---7-7-7-7-------------|
E|-0-0-0-0---4-4-4-4---5-5-5-5---5-5-5-5-------------|

Guitar 1: lead
e|--0-0-0-0--0-0-0-0---------------------|
B|--5-5-5-5--4-4-4-4--0-0-0-0---0-0-0-0--|
G|--------------------6-6-6-6---5-5-5-5--|
D|---------------------------------------|
A|---------------------------------------|
E|---------------------------------------|

Roses, roses cold.
Guitar 2: rythum
e|-----------4-4-4-4---5-5-5-5---5-5-5-5-------------|
B|-----------4-4-4-4---5-5-5-5---5-5-5-5-------------|
G|-1-1-1-1---5-5-5-5---6-6-6-6---5-5-5-5-------------|
D|-2-2-2-2---6-6-6-6---7-7-7-7---7-7-7-7-------------|
A|-2-2-2-2---6-6-6-6---7-7-7-7---7-7-7-7-------------|
E|-0-0-0-0---4-4-4-4---5-5-5-5---5-5-5-5-------------|
Guitar 1: lead
e|--0-0-0-0--0-0-0-0---------------------|
B|--5-5-5-5--4-4-4-4--0-0-0-0---0-0-0-0--|
G|--------------------6-6-6-6---5-5-5-5--|
D|---------------------------------------|
A|---------------------------------------|
E|---------------------------------------|
Roses, roses sold out.

Guitar 2: rythum
e|-----------4-4-4-4---5-5-5-5---5-5-5-5-------------|
B|-----------4-4-4-4---5-5-5-5---5-5-5-5-------------|
G|-1-1-1-1---5-5-5-5---6-6-6-6---5-5-5-5-------------|
D|-2-2-2-2---6-6-6-6---7-7-7-7---7-7-7-7-------------|
A|-2-2-2-2---6-6-6-6---7-7-7-7---7-7-7-7-------------|
E|-0-0-0-0---4-4-4-4---5-5-5-5---5-5-5-5-------------|
Guitar 1: lead
e|--0-0-0-0--0-0-0-0----------------------------|
B|--5-5-5-5--4-4-4-4--0-0-0-0---9-9h10-9h10-9~--|
G|--------------------6-6-6-6-------------------|
D|----------------------------------------------|
A|----------------------------------------------|
E|----------------------------------------------|
Roses, roses cold.

Guitar 2: rythum
e|-----------4-4-4-4---5-5-5-5---5-5-5-5-------------|
B|-----------4-4-4-4---5-5-5-5---5-5-5-5-------------|
G|-1-1-1-1---5-5-5-5---6-6-6-6---5-5-5-5-------------|
D|-2-2-2-2---6-6-6-6---7-7-7-7---7-7-7-7-------------|
A|-2-2-2-2---6-6-6-6---7-7-7-7---7-7-7-7-------------|
E|-0-0-0-0---4-4-4-4---5-5-5-5---5-5-5-5-------------|
Guitar 1: lead
e|--0-0-0-0--0-0-0-0----------------------------|
B|--5-5-5-5--4-4-4-4--0-0-0-0---9-9h10-9h10-9~--|
G|--------------------6-6-6-6-------------------|
D|----------------------------------------------|
A|----------------------------------------------|
E|----------------------------------------------|
Roses, roses sold out.

Bridge:
Guitar 1: lead
e|--4--4-4--4-4--4-4--4-4---|
B|--5--5-5--5-5--5-5--5-5---|
G|--6--6-6--6-6--6-6--6-6---|
D|--6--6-6--6-6--6-6--6-6---|
A|--4--4-4--4-4--4-4--4-4---|
E|--------------------------|
Sing it soft.

Guitar 1: lead or rythum
e|--5--5-5--5-5--5-5--5-5---|
B|--5--5-5--5-5--5-5--5-5---|
G|--6--6-6--6-6--6-6--6-6---|
D|--7--7-7--7-7--7-7--7-7---|
A|--7--7-7--7-7--7-7--7-7---|
E|--5--5-5--5-5--5-5--5-5---|
Make it slow.

Guitar 1: lead or rythum
e|--7--7-7--7-7--7-7--7-7---|
B|--7--7-7--7-7--7-7--7-7---|
G|--8--8-8--8-8--8-8--8-8---|
D|--9--9-9--9-9--9-9--9-9---|
A|--9--9-9--9-9--9-9--9-9---|
E|--7--7-7--7-7--7-7--7-7---|
Apples parachute

Guitar 1: lead or rythum
e|--7--7-7--7-7--7-7--7-7---|
B|--7--7-7--7-7--7-7--7-7---|
G|--8--8-8--8-8--8-8--8-8---|
D|--9--9-9--9-9--9-9--9-9---|
A|--9--9-9--9-9--9-9--9-9---|
E|--7--7-7--7-7--7-7--7-7---|
the boys back down.

Guitar 1: lead
e|--4--4-4--4-4--4-4--4-4---|
B|--5--5-5--5-5--5-5--5-5---|
G|--6--6-6--6-6--6-6--6-6---|
D|--6--6-6--6-6--6-6--6-6---|
A|--4--4-4--4-4--4-4--4-4---|
E|--------------------------|
Fill it up.
Guitar 1: lead or rythum
e|--5--5-5--5-5--5-5--5-5---|
B|--5--5-5--5-5--5-5--5-5---|
G|--6--6-6--6-6--6-6--6-6---|
D|--7--7-7--7-7--7-7--7-7---|
A|--7--7-7--7-7--7-7--7-7---|
E|--5--5-5--5-5--5-5--5-5---|
Overflow.
Guitar 1: lead or rythum
e|--7--7-7--7-7--7-7--7-7---|
B|--7--7-7--7-7--7-7--7-7---|
G|--8--8-8--8-8--8-8--8-8---|
D|--9--9-9--9-9--9-9--9-9---|
A|--9--9-9--9-9--9-9--9-9---|
E|--7--7-7--7-7--7-7--7-7---|
A new, improved modern way to feel.

End:

Guitar 2: rythum
e|--4-4-4-4---7-7-7-7----5-5-5-5-----|
B|--5-5-5-5---7-7-7-7----5-5-5-5-----|
G|--6-6-6-6---9-9-9-9----6-6-6-6-----|
D|--6-6-6-6---9-9-9-9----7-7-7-7-----|
A|--4-4-4-4---7-7-7-7----7-7-7-7-----|
E|-----------------------5-5-5-5-----|
Guitar 1: Lead
e|------7-------7-------7---------|
B|----9---9---7---7---9-----------|
G|--9-------8-------9-------------|
D|--------------------------------|
A|--------------------------------|
E|--------------------------------|
I don't even know you.

Guitar 2: rythum
e|--4-4-4-4---7-7-7-7----5-5-5-5-----|
B|--5-5-5-5---7-7-7-7----5-5-5-5-----|
G|--6-6-6-6---9-9-9-9----6-6-6-6-----|
D|--6-6-6-6---9-9-9-9----7-7-7-7-----|
A|--4-4-4-4---7-7-7-7----7-7-7-7-----|
E|-----------------------5-5-5-5-----|
Guitar 1: Lead
e|------7-------7-------7---------|
B|----9---9---7---7---9-----------|
G|--9-------8-------9-------------|
D|--------------------------------|
A|--------------------------------|
E|--------------------------------|
You won't even know I'm gone.


Guitar 2: rythum
e|--7-7-7-7---5-5-5-5---5-5-5-5---7-7-7-7------|
B|--7-7-7-7---5-5-5-5---7-7-7-7---9-9-9-9------|
G|--9-9-9-9---6-6-6-6---7-7-7-7---9-9-9-9------|
D|--9-9-9-9---7-7-7-7---5-5-5-5---7-7-7-7------|
A|--7-7-7-7---5-5-5-5--------------------------|
E|---------------------------------------------|
Guitar 1: Lead
e|---12----12----11----11----12----12---14----14------|
B|------12----12----12----12----12---12----12-----12--|
G|----------------------------------------------------|
D|----------------------------------------------------|
A|----------------------------------------------------|
E|----------------------------------------------------|
I don't even know you.

Guitar 2: rythum
e|--7-7-7-7---5-5-5-5---5-5-5-5---7-7-7-7------|
B|--7-7-7-7---5-5-5-5---7-7-7-7---9-9-9-9------|
G|--9-9-9-9---6-6-6-6---7-7-7-7---9-9-9-9------|
D|--9-9-9-9---7-7-7-7---5-5-5-5---7-7-7-7------|
A|--7-7-7-7---5-5-5-5--------------------------|
E|---------------------------------------------|
Guitar 1: Lead
e|---12----12----11----11----12----12---14----14------|
B|------12----12----12----12----12---12----12-----12--|
G|----------------------------------------------------|
D|----------------------------------------------------|
A|----------------------------------------------------|
E|----------------------------------------------------|
You won't even know I'm gone.


Guitar 2: rythum
e|--2-2---2---2-2---2---2-2---2---2-2-2-2----5-5---5---5-5---5---5-5---5---5-5-|
B|--2-2---2---2-2---2---2-2---2---2-2-2-2----5-5---5---5-5---5---5-5---5---5-5-|
G|--3-3---3---3-3---3---3-3---3---3-3-3-3----6-6---6---6-6---6---5-5---5---5-5-|
D|--4-4---4---4-4---4---4-4---4---4-4-4-4----7-7---7---7-7---7---7-7---7---7-7-|
A|--4-4---4---4-4---4---4-4---4---4-4-4-4----7-7---7---7-7---7---7-7---7---7-7-|
E|--2-2---2---2-2---2---2-2---2---2-2-2-2----5-5---5---5-5---5---5-5---5---5-5-|
Guitar 1: Lead
e|----------------------------------------------------|
B|----------------------------------------------------|
G|---13^14---13^14---13^14---13~----------------------|
D|----------------------------------------------------|
A|----------------------------------------------------|
E|----------------------------------------------------|
Was it something I did wrong?

Guitar 2: rythum
e|--2-2---2---2-2---2---2-2---2---2-2-2-2----5-5---5---5-5---5---5-5---5---5-5-|
B|--2-2---2---2-2---2---2-2---2---2-2-2-2----5-5---5---5-5---5---5-5---5---5-5-|
G|--3-3---3---3-3---3---3-3---3---3-3-3-3----6-6---6---6-6---6---5-5---5---5-5-|
D|--4-4---4---4-4---4---4-4---4---4-4-4-4----7-7---7---7-7---7---7-7---7---7-7-|
A|--4-4---4---4-4---4---4-4---4---4-4-4-4----7-7---7---7-7---7---7-7---7---7-7-|
E|--2-2---2---2-2---2---2-2---2---2-2-2-2----5-5---5---5-5---5---5-5---5---5-5-|
Guitar 1: Lead
e|-------------------------|
B|-------------------------|
G|-----9--8----------------|
D|------------9---9/11~----|
A|-------------------------|
E|-------------------------|
Was it something I did wrong?
Guitar 2: rythum
e|--2-2---2---2-2---2---2-2---2---2-2-2-2----5-5---5---5-5---5---5---|
B|--2-2---2---2-2---2---2-2---2---2-2-2-2----5-5---5---5-5---5---5---|
G|--3-3---3---3-3---3---3-3---3---3-3-3-3----6-6---6---6-6---6---5---|
D|--4-4---4---4-4---4---4-4---4---4-4-4-4----7-7---7---7-7---7---7---|
A|--4-4---4---4-4---4---4-4---4---4-4-4-4----7-7---7---7-7---7---7---|
E|--2-2---2---2-2---2---2-2---2---2-2-2-2----5-5---5---5-5---5---5---|
Was it something I did wrong?





Comments


Popular Meg And Dia tabs & chords
Rebecca Chords
Black Wedding Tabs
Cardigan Weather 1 Tabs
Fighting For Nothing Tabs
Less Of Me Intro Tabs
Roses 5 Tabs
19 Stars Ukulele
Bored Of Your Love Ukulele
Getaways Turned Holidays Ukulele
Roses Ukulele


Song lyrics



↑ Back to top | Tablatures and chords are parodies/interpretations of the original songs. You may use it for private study, scholarship, research or language learning purposes only
© 2014 AZChords.com Contact us | Privacy policy | DMCA | Add/correct tabs | Request tabs | Top 50 tabs