» » »

Bat Out Of Hell Tabs (ver.4)

Artists:  A B C D E F G H I J K L M N O P Q R S T U V W X Y Z # 

Bat Out Of Hell Tabs (ver.4)

Meat Loaf
Rating:
5/5 (2 votes)

Hard to play? Try these video lessons and learn fast.
                (Intro)
Meat Loaf
Bat Out Of Hell
Words and Music by Jim Steinman

Caleb Pedercini
Special Thanks to:
Eric Despard

This is probably the best tab you'll find online.
For the solo, it's not completley accurate but you can improvise a little if you want.
This song is best played on a guitar with a whammy bar. Since my guitar doesn't have one 
have altered it a little.

The timing might be off in some spots, just listen to the recording.

Guitar 1.

   D#  F          D#  F       D#   F          Piano Intro
e---------------------------------------------------------------------------|
b---------------------------------------------------------------------------|
g---8--10----------8--10-------8--10----------------------------------------|
d---8--10----------8--10-------8--10----------------------------------------|
a---6---8----------6---8-------6---8----------------------------------------|
e---------------------------------------------------------------------------|
    quick             P.M.___________________      Pick slide
e---------------------------------------------------------------------------|
b---------------------------------------------------------------------------|
g---10--10-----------------8-8-8-8---8-8-8-8--------------------------------|
d---10--10-----------------8-8-8-8---8-8-8-8--------------------------------|
a----8---8-----------------6-6-6-6---6-6-6-6--------------------------------|
e-------------------------------------------------------X\\\----------------|
     Play this 8x
e---------------------------------------------------------------------------|
b---------------------------------------------------------------------------|
g---8-------10---10-10-10-10-10-10------------------------------------------|
d---6--8----10---10-10-10-10-10-10------------------------------------------|
a------6--8--8----8--8--8--8--8--8------------------------------------------|
e---------6-----------------------------------------------------------------|
  Play 4x
e---------------------------------------------------------------------------|
b---------------------------------------------------------------------------|
g----8--------10~~~---------------------------------------------------------|
d----6--8-----10~~~---------------------------------------------------------|
a-------6--8---8~~~---------------------------------------------------------|
e----------6----------------------------------------------------------------|

e---------------------------------------------------------------------------|
b---------------------------------------------------------------------------|
g----8--------8---------8--------8------------------------------------------|
d----6--8-----6--8------6--8-----6--8---------------------------------------|
a-------6--8-----6--8------6--8-----6--8------------------------------------|
e----------6--------6---------6--------6------------------------------------|

e---------------------------------------------------------------------------|
b---------------------------------------------------------------------------|
g------------------------------------10~~~---8------------------------------|
d------------------------------------10~~~---6--8---------------------------|
a---8-6-8-6-8-6-8-6-8-6-8-6-8-6-8-6---8~~~------6---------------------------|
e---------------------------------------------------------------------------|
  Rythym Fig. 1        Play 4x
e---------------------------------------------------------------------------|
b---------------------------------------------------------------------------|
g-----10-------8------------------------------------------------------------|
d-----10-------6--8---------------------------------------------------------|
a---8--8----------6---------------------------------------------------------|
e---6-----------------------------------------------------------------------|

Guitar Solo 1. Play Ryth. Fig 1. under this
Guitar 2.
e---------------------------------------------------------------------------|
b---------------------------------------------------------------------------|
g----14s15s14~~--15s17s15s14----14s15s14------------------------------------|
d--15------------------------15----------15\--------------------------------|
a---------------------------------------------------------------------------|
e---------------------------------------------------------------------------|

                                                    End Gtr Solo 1.
e---------------------------------------------------------------------------|
b---------------------------------------------------------------------------|
g--------------14s15s14~~~~--15s17s15s14-----14s15s14-----------------------|
d-----13h15p13---------------------------15-----------15~~------------------|
a--15-----------------------------------------------------------------------|
e---------------------------------------------------------------------------|


Guitar Solo 2. Play w/Ryth. Fig 1. and Guitar Solo 1. under it.
Guitar 3.
e---19b-19b-19b-19-18-19----------------------------------------------------|
b------------------------19-------------------19~~~--18h16-18h16-18h16------|
g---------------------------18-16-16-18-15-----------------------------16---|
d---------------------------------------------------------------------------|
a---------------------------------------------------------------------------|
e---------------------------------------------------------------------------|
                                            play triplet 8x
e---------------------------------------------------------------------------|
b--19b-b--19p17----19p17~~---19p17--17~~-----19p17--------------------------|
g---------------18----------------18--------------18------------------------|
d---------------------------------------------------------------------------|
a---------------------------------------------------------------------------|
e---------------------------------------------------------------------------|

 Guitar 1.
e--17~~~--18s17s15~~~--17-15s13~~---13-15-17~~~18-17-15~~~17-15-13~~~-------|
b---------------------------------------------------------------------------|
g---------------------------------------------------------------------------|
d---------------------------------------------------------------------------|
a---------------------------------------------------------------------------|
e---------------------------------------------------------------------------|

 Guitar 2.
e---------------------------------------------------------------------------|
b---------------------------------------------------------------------------|
g-10-------------------------------------10---------------------------------|
d-10------------10------------8-----8-10-10----------10----------8----------|
a--8------------10------------8-----8-10--8----------10----------8----------|
e----------------8------------6-----6--8--------------8----------6----------|

 Guitar 1.
e---13-15-13-13~~~~~--------------------------------------------------------|
b---------------------------------------------------------------------------|
g---------------------------------------------------------------------------|
d---------------------------------------------------------------------------|
a---------------------------------------------------------------------------|
e---------------------------------------------------------------------------|

 Guitar 2.
e---------------------------------------------------------------------------|
b---------------------------------------------------------------------------|
g-----------10--------------------------------------------------------------|
d---8-10----10--------------------------------------------------------------|
a---8-10-----8--------------------------------------------------------------|
e---6--8--------------------------------------------------------------------|

End of Intro

Enjoy!

I'll try to get figure out the rest of the song later.
Rock On!
            
Hard to play? Try these video lessons and learn fast. | Correct




comments powered by Disqus
↑ Back to top | Tablatures and chords are parodies/interpretations of the original songs. You may use it for private study, scholarship, research or language learning purposes only