» » »

Dragonfly Tabs (ver.1)

Artists:  A B C D E F G H I J K L M N O P Q R S T U V W X Y Z # 

Dragonfly Tabs (ver.1)

M Craft
Rating:
5/5 (8 votes)

Hard to play? Try these video lessons and learn fast.
                ----------------------------------------------------------------------------
                             DRAGONFLY - M.Craft
----------------------------------------------------------------------------
Tuning: EADGBE

Capo 2nd fret

E|----2---2------2---2------2---2------2---2----|
B|--3-------3--2-------2--0-------0--2-------2--|
G|----------------------------------------------|
D|----------------------------------------------|
A|--2---2------0---0-----------------0---0------|
E|------------------------3---3-----------------|

Repeat throughout!
            
Hard to play? Try these video lessons and learn fast. | Correct




comments powered by Disqus
↑ Back to top | Tablatures and chords are parodies/interpretations of the original songs. You may use it for private study, scholarship, research or language learning purposes only