>
 >
Empty Chairs 1

Empty Chairs 1 Guitar Tabs

Mclean Don - Empty Chairs 1 chords, tabs, tablatures, lyrics

Guitar lessons | Add/correct | Request | Top 50 tabs Artists:  A B C D E F G H I J K L M N O P Q R S T U V W X Y Z 0-9

Empty Chairs 1 Guitar Tabs – Mclean Don

CD, Sheet music, Poster

Do you like Empty Chairs 1? Share with your friends now
TabsTabs v2
Empty chairs		Don McLean
------------

Note: The 1st, 2nd and 3rd chorus and verse are not identical.

Intro:
e|---2p0--------------------------------------------------------------
b|-------3-1p0-1s3-5s7----5s7----5s7----------------------------------
g|-------------2s4-5s7----5s7----5s7----------------------------------
D|----------------------------------------0---------------------------
A|--------------------------------------------------------------------
E|--------------------------------------------------------------------

1st verse:
I feel the trembling tingle of the sleepless night...
e|--------------0-------0----------0-----------0-2--------------------
b|--0---0---3-------------0--0h1-------------------------0-1---0------
g|--0---0-----0-------2-----2----2-----0-----2---------0-0-0---0------
D|----0---0---------2----------------2-----0---------0-------0--------
A|----------------0----------------3----------------------------------
E|--3-------3--------------------------------------3------------------

e|-3---2---0-------------0------------0----------0-2------------------
b|-------------3-----------0---0h1-------------------------0-1---0----
g|---------------------2-----2-----2------0----2---------0-0-0---0----
D|---0---0---0---0---2------------------2----0---------0-------0------
A|-----------------0------------------3-------------------------------
E|-3---3---3---3-------------------------------------3----------------

1st Chorus:
      And I wonder if you know...
e|---------2p0-----0---------------0-2---2---2---2---------3----------
b|-------0-----3-1-------0-0h1---3-------1-------1---0-------0-----0--
g|-----0---------------2-------2-------2---2---2---2-----0-------0----
D|---0---------------2---------------0-------0---------0-------0------
A|-----------------0--------------------------------------------------
E|-3-------------------------------------------------3-------2--------
                           Until you did...
e|-0-------------------0-------------------------2--------------------
b|---------1---3-1-------------------------------1--------------------
g|-------0---0-------0---------0---------------2---2------------------
D|-----2-----------2---------2---------------0------------------------
A|---2-----------0---------3------------------------------------------
E|-0------------------------------------------------------------------
  would...
e|-3-------2---0---------------0-----2p0------------------------------
b|-----0-----------1-----1-3-------------3-1p0-1s3-5s7--5s7--5s7------
g|-------0---0---0-----0-----0-----2-----------2s4-5s7--5s7--5s7------
D|---0---------------2-----------0----------------------------------0-
A|-----------------0-------0------------------------------------------
E|-3-------3----------------------------------------------------------

2nd verse
Moonlight used to bath the contors of your face...
e|--------------0-------0----------0-----------0-2--------------------
b|--0---0---3-------------0--0h1-------------------------0-1---0------
g|--0---0-----0-------2-----2----2-----0-----2---------0-0-0---0------
D|----0---0---------2----------------2-----0---------0-------0--------
A|----------------0----------------3----------------------------------
E|--3-------3--------------------------------------3------------------

e|-3---2---0---------------------------0---------2--------------------
b|-------------3---1---0-----------1-----1-----1---------0-1---0------
g|-------------------------2---0-----0-------2---------0-0-0---0------
D|---0---0---0---0---2---2---2---2---------0---------0-------0--------
A|-----------------0---0---0---0---3----------------------------------
E|-3---3---3---3-----------------------------------3------------------

2nd Chorus:
      And I wonder if you know...
e|---------2p0-----0---------------0-2---2---2---2---------3----------
b|-------0-----3-1-------0-0h1---3-------1-------1---0-------0-----0--
g|-----0---------------2-------2-------2---2---2---2-----0-------0----
D|---0---------------2---------------0-------0---------0-------0------
A|-----------------0--------------------------------------------------
E|-3-------------------------------------------------3-------2--------
                           Until you did...
e|-0-------------------0-------------------------2--------------------
b|---------1---3-1-------------------------------1--------------------
g|-------0---0-------0---------0---------------2---2------------------
D|-----2-----------2---------2---------------0------------------------
A|---2-----------0---------3------------------------------------------
E|-0------------------------------------------------------------------
  would...               Never thought...
e|-3-------2---0-------0----------------------------------------------
b|-----0-----------3-------------3----------------------1-------0-----
g|-------0---0---0---0---0-----2-------0----------------0-------0-----
D|---0-----------------------0---------2--------------2---2---2---2---
A|-----------------------------------2---------0h2--0-----------------
E|-3-------3-------3-------2-------0-----0h2h3--------------3---------

e|-------------------------------------------------0------------------
b|-------0-0h1---1---0-------0-------0-----0-1---3---1-------1------1-
g|-----2-------2---2-----0-------0-------0-----0-----0----2--0----0---
D|---0-----------------0---0---0---0---2-------------2--2----2--2-----
A|---------------------------------------------------0-------3--------
E|-2-----------------3-------2-------0--------------------------------

e|-------0-0h2---------3-------2---0---------------0----2-2s0-0-------
b|-----1---------1---------0-----------1-----1-3--------3-3s1-1-3-3s1-
g|---2---------2---0---------0---0---0-----0-----0--------------4-4s2-
D|-0-------0-------------0---------------2-----------0----------------
A|-------------------------------------0-------0----------------------
E|---------------------3-------3--------------------------------------

e|--------------------------------------------------------------------
b|-1-3----------------------------------------------------------------
g|-2-4----------------------------------------------------------------
D|--------0-----------------------------------------------------------
A|--------------------------------------------------------------------
E|--------------------------------------------------------------------

3rd verse.
Morning comes and morning goes ...
e|--------------0-------0----------0-------------2--------------------
b|--0---0---3-------------0--0h1---------------1---------0-1---0------
g|--0---0-----0-------2-----2----2-----0-----2---------0-0-0---0------
D|----0---0---------2----------------2-----0---------0-------0--------
A|----------------0----------------3----------------------------------
E|--3-------2--------------------------------------3------------------

e|-3---2---0---------------------------0-------0-2--------------------
b|-------------3---1---0-------0---1-----1-----1-----------0-1---0----
g|-------------------------2---------0-------2-----2-----0-0-0---0----
D|---0---0---0---0---2---2---2---2---------0-----------0-------0------
A|-----------------0---0---0---0---3----------------------------------
E|-3---3---3---3-------------------------------------3----------------

3rd Chorus:
      And I wonder if you know...
e|---------2p0-----0---------------0-2---2---2---2---------3----------
b|-------0-----3-1-------0-0h1---3-------1-------1---0-------0-----0--
g|-----0---------------2-------2-------2---2---2---2-----0-------0----
D|---0---------------2---------------0-------0---------0-------0------
A|-----------------0--------------------------------------------------
E|-3-------------------------------------------------3-------2--------
                           Until you did...
e|-0-------------------0-------------------------2--------------------
b|---------1---3-1-------------------------------1--------------------
g|-------0---0-------0---------0---------------2---2------------------
D|-----2-----------2---------2---------------0------------------------
A|---2-----------0---------3------------------------------------------
E|-0------------------------------------------------------------------
  would...
e|-3-------2---0---------------0-----2p0------------------------------
b|-----0-----------1-----1-3-------------3-1p0-1s3-5s7--5s7--5s7------
g|-------0---0---0-----0-----0-----2-----------2s4-5s7--5s7--5s7------
D|---0---------------2-----------0------------------------------------
A|-----------------0-------0------------------------------------------
E|-3-------3----------------------------------------------------------

e|-----------1--------------------------------------------------------
b|---------0----------------------------------------------------------
g|-------0------------------------------------------------------------
D|-----0--------------------------------------------------------------
A|---2----------------------------------------------------------------
E|-3------------------------------------------------------------------


Lee Francis Wilhelmsen

19(C)94





Comments


Popular Mclean Don tabs & chords
Its Just The Sun Chords
Mountians O Mourne Chords
Winter Has Me Chords
Bablyon Tabs
Its Just The Sun Tabs
Legend Of Andrew Mccrew Tabs
The Grave Tabs
The Grave 1 Tabs
Till Tomorrow Tabs
Till Tomorrow 1 Tabs


Song lyrics



↑ Back to top | Tablatures and chords are parodies/interpretations of the original songs. You may use it for private study, scholarship, research or language learning purposes only
© 2014 AZChords.com Contact us | Privacy policy | DMCA | Add/correct tabs | Request tabs | Top 50 tabs