» » »

We Shall Not Be Shaken Tabs (ver.1)

Artists:  A B C D E F G H I J K L M N O P Q R S T U V W X Y Z # 

We Shall Not Be Shaken Tabs (ver.1)

Matt Redman
Rating:
0/5 (0 votes)

Hard to play? Try these video lessons and learn fast.
                You play this for the intro, and the verse..the 2nd time you play the verse (after the 
you play the first like two chords with 3rd string power chords...listen to the song, 
understand :)

This is one step lower, just move everyone up one step to play it in the original 
Maybe I'll just add it as well :)

One step lower:

E----------------------------------------------------------------|
B----------------------------------------------------------------|
G----------------------------------------------------------------|
D----------------------2-----------4-------4----4----------------|
A-------2--h4--4--4--4---4--2--2-2----2--2----2------------------|
E----------------------------------------------------------------|


                              C#m           B5
When everything's breaking
                      Asus2         B5
YOU are left unshaken.
                               C#m
When everything's tumbling down,
B5                        Asus4       B5
YOU're the solid ground.
                            C#m         B5
Nations could be quaking,
                  Asus4     B5
Economies failing;
                                C#m
When fear is found all around,
B                        A2
YOU're the solid ground.


        Bsus4                   E2       G#m7               A                  E
Our GOD,            YOU are            all that YOU say YOU are;
                   C#m7                           G#m
YOU Never Change, YOU never fail,
                    A
YOU never fade.
                          E2      G#m7             A                 E
Our GOD, YOU are         faithful in all YOUR ways,
                       C#m7                         G#m
Forever YOU stand, forever YOU reign,
                      A
Forever remain.
And we shall not be shaken.

C#m | B | A | B                               | C#m | B | A | B |
                   We shall not be shaken


E/G#
We shall, we shall not be shaken.
A2
We shall, we shall not be shaken.
           E                  B/D#
When all around is sinking sand.
E/G#
YOU are, YOU are never changing.
A2
YOU are, YOU are never changing.
E                         B/D#
YOU will stand, the Great I AM.
        A
The Great I AM

Original Key:

E----------------------------------------------------------------|
B----------------------------------------------------------------|
G----------------------------------------------------------------|
D----------------------3-----------5-------5----5----------------|
A-------3--h5--5--5--5---5--3--3-3----3--3----3------------------|
E----------------------------------------------------------------|
            
Hard to play? Try these video lessons and learn fast. | Correct




comments powered by Disqus
↑ Back to top | Tablatures and chords are parodies/interpretations of the original songs. You may use it for private study, scholarship, research or language learning purposes only