» » »

Matt Redman, Holy Chords (ver.1)

Artists:  A B C D E F G H I J K L M N O P Q R S T U V W X Y Z # 

Holy Chords (ver.1)

Matt Redman Tabs
 Rating:
4.3/5 (6 votes)
Holy lessons Tabs too difficult? Try these video lessons and learn fast
1
                Matt Redman


Capo 3
Intro (electric and piano only)
Em7 - C - Dsus4 D


Verse 1 x2 (piano only)
                 C         G        D        Em
What heart could hold the weight of Your love
                 C         G        D      
And know the heights of Your great worth
                 C      G     D        Em
What eyes could look on Your glorious face
C         Em       D      
  Shining like the sun


Chorus 1 (acoustic only)
        Em7   C     Dsus4-D            Em7      C        Dsus4-D
You are Holy, Holy, Ho  - ly, God most high and God most worthy
        Em7   C     Dsus4-D
You are Holy, Holy, Holy
           Em7   C          Dsus4-D
Jesus, You are,  Jesus, You are


Verse 2 (band comes in)
Your name alone has power to raise us
Your light will shine when all else fades
Our eyes will look on Your glorious face
Shining like the sun. Who is like You God


Chorus 2 (x2)
C     G     Dsus4-D            C        G        Dsus4-D
Holy, Holy, Ho  - ly, God most high and God most worthy
        C     G     Dsus4-D
You are Holy, Holy, Holy
           Em7   C          Dsus4-D
Jesus, You are,  Jesus, You are       (repeat)


Bridge
C            G           D           Em
Who shall we say You are? You're the living God
C            G           D           Em
Who shall we say You are? You're the Great I Am
C            G          D               Em           C - Em D
The highest name of all, You're all You say You are


Chorus 1 (acapella, building)
Chorus 2 (full band)


Verse 3 (acoustic only)
And You will come again in Glory to judge the living and the dead
All eyes will look on Your glorious face
Shining like the sun. Who is like You God

Intro
Chorus 2





Intro tab (heavy on the delay)
e|-------------------(13)---------------------------------------|
B|--11----11----11----13---x2---11----11----11----10------------|
G|-----12----12----12--------------10----10----10-------x2------|
D|--------------------------------------------------------------|
A|--------------------------------------------------------------|
E|--------------------------------------------------------------|


For the piano part, I play it like this on the guitar, using an alternating
picking pattern. Play it and you'll hear it.
    C         G         D          Em
e|--------------------------------------------------|
B|--------------------------------------------------|
G|--------------------------------------------------|
D|--------------------------------------------------|
A|--10---------5--------12---------13---------------|
E|-----11--------6---------13---------15------------|


If you have any input or corrections, hit me up on twitter and also let me 
know if you have any other songs you need help with. God bless!
            
Submit corrections

comments powered by Disqus
↑ Back to top | Matt Redman Chords for Holy. Lyrics for acoustic guitar and electric guitar. 1 Tablatures and chords are parodies/interpretations of the original songs. You may use it for private study, scholarship, research or language learning purposes only