>
 >
Church Clothes

Church Clothes Guitar Tabs

Matt Nathanson - Church Clothes chords, tabs, tablatures, lyrics

Guitar lessons | Add/correct | Request | Top 50 tabs Artists:  A B C D E F G H I J K L M N O P Q R S T U V W X Y Z 0-9

Church Clothes Guitar Tabs – Matt Nathanson

CD, Sheet music, Poster

Do you like Church Clothes? Share with your friends now
TabsTabs v2
-----------------------------------------------------------------------------
                             CHURCH CLOTHES  Matt Nathanson
-----------------------------------------------------------------------------

Tuning:Half-step Down

Verse

e|--------------------------------------------------------------------------|
B|8888-7-7----7777-7-7-88---------------------------------------------------|
G|---------77-7777-7-7------------------------------------------------------|
D|---------77---------------------------------------------------------------|
A|7777-7-5-55-7777-7-7-7----------------------------------------------------|
E|----------------------8---------------------------------------------------|

Chorus

e|-----------22-------------------------------------------------------------|
B|-1--1-1-1--33-3\78---1--1-1-1--55-3\78-----------------------------------|
G|-----------22-------------------55----------------------------------------|
D|-2--2-2-2-------------2--2-2-2--33----------------------------------------|
A|-3--3-3-3------3\77---3--3-3-3-----3\77-----------------------------------|
E|--------------------------------------------------------------------------|

Chorus Ending

e|--------------------------------------------------------------------------|
B|-8888-8-8--88-8-8-8--88--8-8-8--10-10-10----------------------------------|
G|-7777-7-7--77-7-7-7--77--7-7-7--------------------------------------------|
D|--------------------------------------------------------------------------|
A|--------------------------------------------------------------------------|
E|-5555-5-5--77-7-7-7--88--8-8-8--10-10-10----------------------------------|

Bridge

e|---------------------------------------------------xx---------------------|
B|-3---3-3-3-3--3--7---7-7-7-7--7--8--8-8-8-8--8--88-xx-8\10-10-------------|
G|---------------------------------------------------xx---------------------|
D|---------------------------------------------------xx---------------------|
A|-----------------7---7-7-7-7--7--7--7-7-7-7--7-----xx---------------------|
E|-3---3-3-3-3--3---------------------------------88-xx-8\10-10-------------|

tab for this (if its just about the same, sorry!).  Remember, Matt uses a 12-string for
song, so it will sound different (but still cool) on a six!  Also, Matt adds 
with tremolo strumming and whatnot in different places, but I'll let you figure out
and where.  This is my favorite song of his; amazing guitarist and artist!

************************************

| /   slide up
| \   slide down
| h   hammer-on
| p   pull-off
| ~   vibrato
| +   harmonic
| x   Mute note
| b   Bend
| pb  Pre-bend
| br  Bend release
| pbr Pre-bend release
| brb Bend release bend

************************************





Comments


Popular Matt Nathanson tabs & chords
Bent 2 Chords
Bent 4 Chords
Bottom Of The Sea Chords
Come On Get Higher 1 Chords
Car Crash Tabs
Continue Dreaming Tabs
Fall To Pieces Tabs
Laid Tabs
Nick Martin Tabs
Sooner Surrender Ukulele


Song lyrics



↑ Back to top | Tablatures and chords are parodies/interpretations of the original songs. You may use it for private study, scholarship, research or language learning purposes only
© 2014 AZChords.com Contact us | Privacy policy | DMCA | Add/correct tabs | Request tabs | Top 50 tabs