» » »

Matt Nathanson, Church Clothes Tabs (ver.1)

Artists:  A B C D E F G H I J K L M N O P Q R S T U V W X Y Z # 

Church Clothes Tabs (ver.1)

Matt Nathanson Tabs
Rating:
4/5 (3 votes)
Church Clothes lessons Tabs too difficult? Try these video lessons and learn fast
                -----------------------------------------------------------------------------
                             CHURCH CLOTHES – Matt Nathanson
-----------------------------------------------------------------------------

Tuning:Half-step Down

Verse

e|--------------------------------------------------------------------------|
B|8888-7-7----7777-7-7-88---------------------------------------------------|
G|---------77-7777-7-7------------------------------------------------------|
D|---------77---------------------------------------------------------------|
A|7777-7-5-55-7777-7-7-7----------------------------------------------------|
E|----------------------8---------------------------------------------------|

Chorus

e|-----------22-------------------------------------------------------------|
B|-1--1-1-1--33—-3\78---1--1-1-1--55-3\78-----------------------------------|
G|-----------22-------------------55----------------------------------------|
D|-2--2-2-2-------------2--2-2-2--33----------------------------------------|
A|-3--3-3-3------3\77---3--3-3-3-----3\77-----------------------------------|
E|--------------------------------------------------------------------------|

Chorus Ending

e|--------------------------------------------------------------------------|
B|-8888-8-8--88-8-8-8--88--8-8-8--10-10-10----------------------------------|
G|-7777-7-7--77-7-7-7--77--7-7-7--------------------------------------------|
D|--------------------------------------------------------------------------|
A|--------------------------------------------------------------------------|
E|-5555-5-5--77-7-7-7--88--8-8-8--10-10-10----------------------------------|

Bridge

e|---------------------------------------------------xx---------------------|
B|-3---3-3-3-3--3--7---7-7-7-7--7--8--8-8-8-8--8--88-xx-8\10-10-------------|
G|---------------------------------------------------xx---------------------|
D|---------------------------------------------------xx---------------------|
A|-----------------7---7-7-7-7--7--7--7-7-7-7--7-----xx---------------------|
E|-3---3-3-3-3--3---------------------------------88-xx-8\10-10-------------|

tab for this (if it’s just about the same, sorry!).  Remember, Matt uses a 12-string for
song, so it will sound different (but still cool) on a six!  Also, Matt adds 
with tremolo strumming and whatnot in different places, but I'll let you figure out
and where.  This is my favorite song of his; amazing guitarist and artist!

************************************

| /   slide up
| \   slide down
| h   hammer-on
| p   pull-off
| ~   vibrato
| +   harmonic
| x   Mute note
| b   Bend
| pb  Pre-bend
| br  Bend release
| pbr Pre-bend release
| brb Bend release bend

************************************
            
Submit corrections

comments powered by Disqus
↑ Back to top | Matt Nathanson Tabs for Church Clothes. Lyrics for acoustic guitar and electric guitar. Tablatures and chords are parodies/interpretations of the original songs. You may use it for private study, scholarship, research or language learning purposes only