>
 >
Angel 1

Angel 1 Guitar Tabs

Matt Nathanson - Angel 1 chords, tabs, tablatures, lyrics

Guitar lessons | Add/correct | Request | Top 50 tabs Artists:  A B C D E F G H I J K L M N O P Q R S T U V W X Y Z 0-9

Angel 1 Guitar Tabs – Matt Nathanson

CD, Sheet music, Poster

Do you like Angel 1? Share with your friends now
Bass TabsChordsTabsTabs v2Ukulele
This is a beautiful song, very simple to play.
If you have trouble with the strumming, listen to the song & you should be able to figure it out.
I've included the tabs, chords, and lyrics to be thorough.
(A list of all the chords used in this song and how to finger them is at the bottom of the page.)
Enjoy. :)


Song structure:
verse
chorus 
interlude
verse
chorus
interlude

Tablature:

Verse: play 4x through (same for both verses)
e------3----3---3----3----3-----3-----3-----3----------------------|
b------3----3---3----3----3-----3-----3-----3----------------------|
g------------------------------------------------------------------|
d----------------------------------0------0------------------------|
a------------------2----3----3-------------------------------------|
E--3-----3---3-----------------------------------------------------|

Chorus: "Angel, you sing.."
e----3-------------3----------3--------3---------------------------------|
b----3-------------3----------3--------3---------------------------------|
g------------------------------------------------------------------------|
d------x4-------0----x4---------x4------------x4-------------------------|
a------------------------------------3-----------------------------------|
E--3------------------------0--------------------------------------------|

Interlude:
E|--------------------| Second time play a G chord to end the song nicely.
A|5~------------------|
D|---4~---------------|
G|-------0~-----------|
B|------------3~------|
e|--------------------|


Lyrics and Chords:
{Verse}
G                           Cadd9
You sounded so good on the phone
                           G
All moved up and all moved on
                   Dsus
Me and gravity we never could agree
G                     Cadd9
I can almost see the sky
                        G
When I need to close my eyes
                              Dsus
You're the only thing that's worth holding on to


{Chorus}
G                     Dsus
Angel you sing about beautiful things
    Em7                    Cadd9
And all I want to do is believe
    G                        Dsus
I traded my dreams for this mess of memories
     Em7                          Cadd9
And they just stopped working for me

{Interlude}
E|--------------------|
A|5~------------------|
D|---4~---------------|
G|-------0~-----------|
B|------------3~------|
e|--------------------|

{Verse}
G                     Cadd9
I'm not a monster I believe
                     G
Like a liar would believe
                       Dsus
Helps me navigate the wooden smiles, the raging sea
G                         Cadd9
All my heroes pull their heads
                        G
Like a fighter would I guess
                    Dsus
No one really ever likes getting older


{Chorus}
G                     Dsus
Angel you sing about beautiful things
    Em7                    Cadd9
And all I want to do is believe
    G                        Dsus
I traded my dreams for this mess of memories
     Em7                          Cadd9
And they just stopped working for me

{Interlude}
E|--------------------| G
A|5~------------------|
D|---4~---------------|
G|-------0~-----------|
B|------------3~------|
e|--------------------|


Chords used in this song:
G

e ---|---|-x-|---|---|
B ---|---|---|---|---|
G ---|---|---|---|---|
D ---|---|---|---|---|
A ---|-x-|---|---|---|
E ---|---|-x-|---|---|  

Cadd9 

e ---|---|---|---|---|
B ---|---|-x-|---|---|
G ---|---|---|---|---|
D ---|-x-|---|---|---|
A ---|---|-x-|---|---|
E ---|---|---|---|---|  

Dsus

e ---|---|-x-|---|---|
B ---|---|-x-|---|---|
G ---|-x-|---|---|---|
D ---|---|---|---|---|
A ---|---|---|---|---|
E ---|---|---|---|---|

Em7

e ---|---|---|---|---|
B ---|---|-x-|---|---|
G ---|---|---|---|---|
D ---|-o-|---|---|---|
A ---|-x-|---|---|---|
E ---|---|---|---|---|

-愛の雨の太陽





Comments


Popular Matt Nathanson tabs & chords
Come On Get Higher Chords
Run Chords
Run 3 Chords
Sing Me Sweet Chords
All We Are Tabs
Answering Machine Tabs
Sky High Honey Tabs
Bent 2 Ukulele
Romeo And Juliet Ukulele
Suspended Ukulele


Song lyrics



↑ Back to top | Tablatures and chords are parodies/interpretations of the original songs. You may use it for private study, scholarship, research or language learning purposes only
© 2014 AZChords.com Contact us | Privacy policy | DMCA | Add/correct tabs | Request tabs | Top 50 tabs