» » »

Matthews Dave, Up And Away Tabs (ver.1)

Artists:  A B C D E F G H I J K L M N O P Q R S T U V W X Y Z # 

Up And Away Tabs (ver.1)

Matthews Dave Tabs
 Rating:
4/5 (4 votes)
Up And Away lessons Tabs too difficult? Try these video lessons and learn fast
                #font                                                                             #


"Up and Away" by Dave Matthews

Intro/Verse:

e|-------------|--------------------------|
b|-------------|--------------------------|
g|----9\----7--|----5----4-2-0---2-4-0-0--|
d|----10\---9--|----7---0------4----------|
a|-------------|--------------------------|
E|--8-----7----|--5----3------------------|
                       *

*The majority of the time during the verse, this riff is played:

e|--------------------|
b|--------------------|
g|----4-2-0---2---0-0-|
d|---0------4---4-----|
a|--------------------|
E|--3-----------------|


Pre-Chorus ("Got me up, up and away..")

e|--3-----0-----|
b|--0--3--2--1--|
g|--0--4--2--2--|
d|--0--4--2--2--|
a|--2--2--0--0--|
E|--3-----------|


Chorus ("Like I'm gone.."):

e|--3--2--------|--3-----0--0--|
b|--0--3--3--3--|--0--3--2--1--|
g|--0--2--2--0--|--0--4--2--2--|
d|--0--0-----0--|--0--4--2--2--|
a|--2-----3--2--|--2--2--0--0--|
E|--3-----------|--3-----------|


Bridge:

e|--------------|--------------|-----0--|--2--------|--3-----0--0--|
b|--------------|-----4--3--3--|-----1--|--3--3--3--|--0--3--2--1--|
g|--7--5--3--2--|--5--5--3--3--|--2--2--|--2--2--0--|--0--4--2--2--|
d|--8--6--0--3--|--6--5--3--3--|--3--2--|--0-----0--|--0--4--2--2--|
a|--8--6--1--3--|--6--3--1--1--|--3--0--|-----3--2--|--2--2--0--0--|
E|--6--4--3--1--|--4-----------|--1-----|-----------|--3-----------|
            
Submit corrections

comments powered by Disqus
↑ Back to top | Matthews Dave Tabs for Up And Away. Lyrics for acoustic guitar and electric guitar. Tablatures and chords are parodies/interpretations of the original songs. You may use it for private study, scholarship, research or language learning purposes only