» » »

Some Devil Standard Tuning Tabs (ver.1)

Artists:  A B C D E F G H I J K L M N O P Q R S T U V W X Y Z # 

Some Devil Standard Tuning Tabs (ver.1)

Matthews Dave
Rating:
0/5 (0 votes)

Hard to play? Try these video lessons and learn fast.
                #font                                                                             #


"Some Devil" by Dave Matthews


Verse:

e|--------------|-----------|--------------|-----------------|
b|----/4-/4\-2--|----2-2-0--|----0----0----|-----------------|
g|----/4-/4\-2--|----2-2-1--|----1----1-0--|------0-------3--|
d|--------------|-----------|-----------0--|------0-------0--|
a|--2-----------|--2--------|--------------|----2-------4----|
E|--------------|-----------|--0-----------|--3------/5------|


Chorus:

e|-----------------------------------------|
b|-----------------------------------------|
g|-----------------------------------------|
d|-----------------------------------------|
a|-----12----12----9----7----5----5----7---|
E|--10-----9-----7----5----3----3----5---5/|

Note: The first note (B) of the verse is the only note that is different than the song played in baritone tuning, so retuning isn't necessary unless you REALLY want that bass note
            
Hard to play? Try these video lessons and learn fast. | Correct




comments powered by Disqus
↑ Back to top | Tablatures and chords are parodies/interpretations of the original songs. You may use it for private study, scholarship, research or language learning purposes only