» » »

Matchbox 20, Unwell Opening Tabs (ver.1)

Artists:  A B C D E F G H I J K L M N O P Q R S T U V W X Y Z # 

Unwell Opening Tabs (ver.1)

Matchbox 20 Tabs
Rating:
0/5 (0 votes)
Unwell Opening lessons Tabs too difficult? Try these video lessons and learn fast
                (Riff)
I saw another guy that posted the chords but didn't have the neat little opening riff (and the one that closes the song... they're pretty much the same thing)... I'm not sure what effect the guys are using but it's definitely a clean sound this should be pretty close to the notes used... It's pretty simple and if you can nail that effect, sounds beautiful.  Standard Tuning, you'll have to figure out timing for yourself...here ya go:

-----------------------------------------------------------
------10-12-10-----------10-12-10-10~------10-12-10--------
-9/11----------11-9-9/11----------11~-9/11----------11-9---
-----------------------------------------------------------
-----------------------------------------------------------
-----------------------------------------------------------

-----------------------------------------------------------
------10-12-10--9~--------10-12-10----------10-12-10-10~---
-9/11----------11~---9/11----------11-9-9/11---------11~---
-----------------------------------------------------------
-----------------------------------------------------------
-----------------------------------------------------------

-----------------------------------------------------------
-12-10-----------10-12-10~------10-12-10-----------10-12-10
-------11-9-9/11-----------9/11----------11-9-9/11---------
-----------------------------------------------------------
-----------------------------------------------------------
-----------------------------------------------------------

---------------------------
--9~-----------------------
-11~-9---9/11-11/13--------
-------9-------------------
---------------------------
---------------------------
            

comments powered by Disqus
↑ Back to top | Matchbox 20 Tabs for Unwell Opening. Lyrics for acoustic guitar and electric guitar. Tablatures and chords are parodies/interpretations of the original songs. You may use it for private study, scholarship, research or language learning purposes only