» » »

Disease Tabs (ver.4)

Artists:  A B C D E F G H I J K L M N O P Q R S T U V W X Y Z # 

Disease Tabs (ver.4)

Matchbox 20
Rating:
0/5 (0 votes)

Hard to play? Try these video lessons and learn fast.
                (Intro)
hey this is my first tab(submitted) and so i hope i do an alright job on this.
id like to add that u do need an effects peddal to play this begining part
but if you do use one then this seems to sound pretty acurate:

E:----3~--3~--3~----3~--3~--3~----5~--5~--5~----4~--4~--4~----5~--5~--5~----5~--5~--5~
B:------------------------------------------------------------------------------------
G:------------------------------------------------------------------------------------
D:------------------------------------------------------------------------------------
A:------------------------------------------------------------------------------------
E:------------------------------------------------------------------------------------

E:-0h2--------------------------------------------------------------------------------
B:-0h2-----2p0------------------------------------------------------------------------
G:---------2p0------------------------------------------------------------------------
D:------------------------------------------------------------------------------------
A:------------------------------------------------------------------------------------
E:------------------------------------------------------------------------------------
            
Hard to play? Try these video lessons and learn fast. | Correct




comments powered by Disqus
↑ Back to top | Tablatures and chords are parodies/interpretations of the original songs. You may use it for private study, scholarship, research or language learning purposes only