» » »

Your Stories My Alibis Bass tabs (ver.1)

Artists:  A B C D E F G H I J K L M N O P Q R S T U V W X Y Z # 

Your Stories My Alibis Bass tabs (ver.1)

Matchbook Romance
Rating:
0/5 (0 votes)

Hard to play? Try these video lessons and learn fast.
                YOUR STORIES, MY ALIBIS-MATCHBOOK ROMANCE
This song is pretty easy but it sounds so cool..I've worked this out in D#, i'm not to sure what tuning matchbook use tho....
Tuning: Drop D#
*=root notes, ()=Hold Note

AFTER GUITAR INTRO AND CHORUS
G: |--------------------------------------------------------------|
D: |--------------------------------------------------------------|
A: |-------------------------------------------------6*-6-6-6-6-6-|
D#:|-7*-7-7-7-7-7-7-0-5*-5-5-5-5-5-5-0-3*-3-3-3-3-3---------------|

AFTER GUITAR INTRO AND CHORUS CONT....

G: |------------------------------|
D: |------------------------------|
A: |----------------0-0-0-0-0-0-0-|
D#:|-0-2*-2-2-2-2-2---------------|

VERSE

G: |----------------------------------------------------------------|last time-|
D: |----------------------------------------------------------------|----------|
A: |------------------------------6-6--6-6--------------0-0-0-0-0-0-|----------|
D#:|-7-7--7-7--5-5--5-5--3-3--3-3-----------2-2-2-2-2-2-------------|----(7)---|

BREAKDOWN BIT AT THE END

G: |----------------------------------------------------------------------------|
D: |----------------------------------------------------------------------------|
A: |--------------------5-5-5-5-5-5-5-5-5--3-3-3-3-3-3-3-3-3--2-2-2-2-2-2-2-2-2-|
D#:|-7-7-7-7-7-7-7-7-7----------------------------------------------------------|

BREAKDOWN BIT AT THE END CONT...

G: |-------------------|after last time-----|
D: |-------------------|--------------------|
A: |-0-0-0-0-0-0-0-0-0-|--------------------|
D#:|-------------------|-7-7-7-7--7-7-7-(7)-|
            
Hard to play? Try these video lessons and learn fast. | Correct




comments powered by Disqus
↑ Back to top | Tablatures and chords are parodies/interpretations of the original songs. You may use it for private study, scholarship, research or language learning purposes only