» » »

Massive Attack, Black Milk Bass tabs (ver.1)

Artists:  A B C D E F G H I J K L M N O P Q R S T U V W X Y Z # 

Black Milk Bass tabs (ver.1)

Massive Attack Tabs
Rating:
0/5 (0 votes)
Black Milk lessons Tabs too difficult? Try these video lessons and learn fast
                Intro:

G-----------|-----------|----------|----------|
D-----------|-----------|----------|----------|  Repeats a few times
A--0-4-6-4--|-0-4-7-6---|--0-4-6-4-|-0-4-7-6--|     through song
E-2---------|2--------2-|-2--------|2--------2|


Main Riff:

G-----------|-----------|----------|----------|
D-----------|-----------|----------|----------|  Repeat
A--0-4------|--0-4------|--0-4-----|4-7-6-0-4-|
E-2-----2-2-|-2-----2-2-|-2----2-2-|---------2|

Really easy, chillin' song to play along to, listen for exact timing-enjoy!(;
            

comments powered by Disqus
↑ Back to top | Massive Attack Bass for Black Milk. Lyrics for acoustic guitar and electric guitar. Tablatures and chords are parodies/interpretations of the original songs. You may use it for private study, scholarship, research or language learning purposes only