» » »

Memphis Tennessee Tabs (ver.1)

Artists:  A B C D E F G H I J K L M N O P Q R S T U V W X Y Z # 

Memphis Tennessee Tabs (ver.1)

Mason Jennings
Rating:
0/5 (0 votes)

Hard to play? Try these video lessons and learn fast.
                -------------------------------------------------------------------------------
		      Memphis, Tennessee - by Mason Jennings
-------------------------------------------------------------------------------

Tuning: Standard

Verse 1:
-----------------------------------
G#m   F#m        B
I was born in a gold mine
G#m     F#m          B
You were born by the sea
  G#m     F#m       B
Without nothing we got something
G#m      F#m    B
Memphis, Tennessee, girl
G#m      F#m    B

Verse 2:
-----------------------------------
G#m     F#m      B
Rain outside my window
G#m     F#m     B
Rain inside my head
G#m   F#m    B
Loneliness inside my heart
G#m       F#m   B
Emptiness in my bed, girl
G#m       F#m   B
Emptiness in my bed

Chorus: *He plays an alternating bass line through this part, check the bottom for a detailed tab.
-----------------------------------
E                   B
You.....ve got the love
       E
That I need
          B       F#major
That I'm dreaming of

Verse 3:
-----------------------------------
G#m   F#m      B
I was born to love you
G#m      F#m     B
You were born to resist
G#m     F#m       B
I would give everything I got
   G#m   F#m        B
To live inside your kiss, girl
   G#m   F#m        B
To live inside your kiss

[Repeat Chorus]

[Repeat V1]

Outro:
-----------------------------------
G#m      F#m   B
Memphis, Tennessee, girl
G#m      F#m   B

==================
Chorus Tab:
                E (barre)                B
e|---------------------------------------------------------------------------|
B|---------------6-----6------6-----6-------4-----4-------4-----4------------|
G|---------------6-----6------6-----6-------4-----4-------4-----4------------|
D|---------------6-----6------6-----6-------4-----4-------4-----4------------|
A|--2--4--6---7------------7-------------2------------2----------------------|
E|------------------7-------------7------------2--------------2--------------|

					   	      F#major
e|---------------------------------------------------------------------------|
B|---------------6-----6-----6------6------4---------------2------2----------|
G|---------------6-----6-----6------6------4---------------3------3----------|
D|---------------6-----6-----6------6------4---------------4------4----------|
A|--2--4--6---7-----------7-------------2------1-----------4----4------------|
E|------------------7------------7----------------4---2----------------------|

************************************
            
Hard to play? Try these video lessons and learn fast. | Correct




comments powered by Disqus
↑ Back to top | Tablatures and chords are parodies/interpretations of the original songs. You may use it for private study, scholarship, research or language learning purposes only