» » »

Mason Jennings, Lilacs Tabs (ver.1)

Artists:  A B C D E F G H I J K L M N O P Q R S T U V W X Y Z # 

Lilacs Tabs (ver.1)

Mason Jennings Tabs
 Rating:
4.3/5 (6 votes)
Lilacs lessons Tabs too difficult? Try these video lessons and learn fast
                -------------------------------------------------------------------------------
-------------------------------------------------------------------------------

Tuning: 1/2 Step Down

This is approximate...

   Part I

    1 & 2 & 3 & 4 &    
e||-7---------7-----|-5-------3-------|-0---------0-----|-0-------3-------|
B||o------0-------0-|-------0-------0-|-------1---------|-----------------|
G||-----0-------0---|-----0-------0---|-----0-------0---|-----0-------0---|
D||-5-------5-------|-4h5-----2-------|-----------------|-----------------|
A||o----------------|-----------------|-3-------3-------|-3-------4-------|
E||-----------------|-----------------|-----------------|-----------------|

  (1st time)
e|-2---------2-----|-0h2p0-------0-----|-----------0-----|-3---------------||
B|-------3---------|---------1---------|-3-----3---------|-------0--------o||
G|-----2-------2---|-------2-------2---|-----0-------0---|-----0-----------||
D|-0-------0-------|-0---------0-------|-----------------|-----------------||
A|-----------------|-------------------|-----------------|---------0------o||
E|-----------------|-------------------|-3-------3-------|-3-----------3---||

  (2nd time)
e|-5---------5-----|-7------\-5--------|-3---------------|-3---------------|
B|-------7---------|-------------------|-----------0-----|-----------------|
G|-----5-------5---|-----7--\(5)---5---|-------0---------|-------0---------|
D|-0-------0-------|-0--------0--------|-----0-------0---|-----0-----------|
A|-----------------|-------------------|-----------------|---------0---2---|
E|-----------------|-------------------|-3-------3-------|-3---------------|

  Part II
                                         (1st time)
e||-0---------3-----|-5-------0-------||-----------0-----|-3----------------||
B||o------1---------|-----------------||-3-----3---------|-------0---------o||
G||-----0-------0---|-----0-------0---||-----------------|------------------||
D||-----------------|-----------------||-----0-------0---|-----0------------||
A||o3-------3-------|-3-------3-------||-----------------|---------0---2---o||
E||-----------------|-----------------||-3-------3-------|-3----------------||

  (2nd time)
e|-----------------|-----------------||
B|-3---------3-----|-3--------------o||
G|-------0---------|-------0---------||
D|-----0-------0---|-----0-----------||
A|-----------------|---------0---2--o||
E|-3-------3-------|-3---------------||

  (3rd time)
e|-7-------7-------|-7---------------|
B|-----------------|-----------------|
G|-------0-------0-|-------0---------|  then...
D|-----0-------0---|-----0-----------|
A|-----------------|---------0---2---|
E|-3-------3-------|-3---------------|

e|-0-------0---3---|-5-------2-------|
B|-------1---------|-------3---------|
G|-----0-----------|-----2-------2---|  Repeat Part I, Part II...
D|-----------------|-0-------0-------|
A|-3-------3---4---|-----------------|
E|-----------------|-----------------|

  Ending
   (last 2 measures of Part II)         (1st & 3rd time)    
e||-0-------0---3---|-5-------2-------||-3---------------|-3p2p0---------------||
B||o------1---------|-------3---------||-----------0-----|-------3---0h1p0----o||
G||-----0-----------|-----2-------2---||-------0---------|-----------------2p0-||
D||-----------------|-0-------0-------||-----0-------0---|---------------------||
A||o3-------3---4---|-----------------||-----------------|--------------------o||
E||-----------------|-----------------||-3-------3-------|-3-------------------||

  (2nd time)
e|-3-------2-------|-0---------------||
B|-----------------|---------3------o||
G|-------0-------0-|-------0-------0-||
D|-----0-------0---|-----0-------0---||
A|-----------------|----------------o||
E|-3-------3-------|-3-------3-------||

  (last time)
e|-3---------------|
B|-0---------------|
G|-0---------------|  
D|-0---------------|
A|-2---------------|
E|-3---------------|


| /  slide up
| \  slide down
| h  hammer-on
| p  pull-off
| ~  vibrato
| +  harmonic
| x  Mute note
===============================================================================
            
Submit corrections

comments powered by Disqus
↑ Back to top | Mason Jennings Tabs for Lilacs. Lyrics for acoustic guitar and electric guitar. Tablatures and chords are parodies/interpretations of the original songs. You may use it for private study, scholarship, research or language learning purposes only