» » »

Hearts Stop Beating Tabs (ver.1)

Artists:  A B C D E F G H I J K L M N O P Q R S T U V W X Y Z # 

Hearts Stop Beating Tabs (ver.1)

Mason Jennings
Rating:
0/5 (0 votes)

Hard to play? Try these video lessons and learn fast.
                Tuned: 1/2 Step Down


Another great song by Mason. Please comment with any suggestions. Enjoy!


Intro (x2)

Fadd9       F/A          Fmaj7   Dm/F         F           Fb5
 |       |       |       |        |       |       |       |        
|3---3---3---1---1---1---0---0---|--------------------------------|
|1---1---1---1---1---1---1---1---|3---3---3---1---1---1---0---0---|
|2---2---2---2---2---2---2---2---|2---2---2---2---2---2---2---2---|
|3---3---3---3---3---3---3---3---|3---3---3---3---3---3---3---3---|
|--------------------------------|--------------------------------|
|--------------------------------|--------------------------------|
 

Cmaj7 C	                Cmaj7         C
 |       |       |       |        |       |       |       |        
|0---0-------0-------------------|--------------------------------|
|0---1-------1-----------0---0---|0---1-------1-----------0---0---|
|0---0-------0-------------------|--------------------------------|
|2---2-------2-----------2---2---|2---2-------2-----------2---2---|
|3---3-------3-----------3---3---|3---3-------3-----------3---3---|
|--------------------------------|--------------------------------|

Repeat intro 4x more with chorus:

Hearts stop beating when we’re apart
I know what you need baby before we start
Every moment in need baby, look what you do to me
Hearts stop beating when we’re apart


F		
Frozen toes and twisted hands outside your window with the crazy plans

C
Throwing rocks ‘til your light comes on, comes on, come on

F
Silhouette by the open blind, clocks are ticking stolen time

C
Every dream I ever knew in the golden light of your room

F
We should make a flag baby

Dm					  c
Cause the place that we are standing is a country all our own


Repeat intro 4x with chorus:

Hearts stop beating when we’re apart
I know what you need baby before we start
Every moment in need baby, look what you do to me
Hearts stop beating when we’re apart

F
Past is gone, the coast is clear. Lights are green, the Spring is here

C
We're sending up our silver sails filled with love and fairy tales

F
Where we’re bound no ones knows. Flowers bloom and honey flows

C
Land of hope, land of dreams, so much closer than it seems

F			      
Throw me down your bags baby

Dm					       C
The world is waiting for us now to make things right


	  F
Woh oh oh oh

          Em
Woh oh oh oh

          G
Woh oh oh oh

          Am
Woh oh oh ohhh

	  F
Woh oh oh oh

          Em
Woh oh oh oh

          G
Woh oh oh oh

          Am
Woh oh oh ohhh

Am  then reapeat intro x2
Yeah.... 


Repeat intro 4x with chorus:

Hearts stop beating when we’re apart
I know what you need baby before we start
Every moment in need baby, look what you do to me
Hearts stop beating when we’re apart

Repeat intro x2 with the following lyrics as the music fades:

When we're apart
(Woh oh oh oh)

When we're apart
(Woh oh oh oh)

When we're apart
(Woh oh oh oh)

When we're apart
(Woh oh oh oh)
            
Hard to play? Try these video lessons and learn fast. | Correct




comments powered by Disqus
↑ Back to top | Tablatures and chords are parodies/interpretations of the original songs. You may use it for private study, scholarship, research or language learning purposes only