» » »

Let's Get It On Bass tabs (ver.1)

Artists:  A B C D E F G H I J K L M N O P Q R S T U V W X Y Z # 

Let's Get It On Bass tabs (ver.1)

Marvin Gaye
Rating:
0/5 (0 votes)

Hard to play? Try these video lessons and learn fast.
                

In this song theres basically one riff which is repeated
almost throughout the song. Its variated quite a bit so
I've tried to put the variations in as best I can.
The other section is a sort of breakdown/bridge  that
occurs twice in the song which is yet again is heavily variated.

Main Riff
G----------------------------------------------|
D----------------------------------------------|
A----6-----------------------------------------|
E--------3--4--6-------------------------------|

Variations of Main Riff
G----------------------------------------------|
D----------------7h8-7h8-----------------------|
A----6-----------------------------------------|
E--------3--4--6-------------------------------|


G---------------------|------------------------|
D---------------------|------------------------|
A----6--------------55|6-----------------------|
E--------3--4--6------|---3--4--6--------------|


G----------------------------------------------|
D----------------------------------------------|
A----6-----------------------------------------|
E--------3--334--446---------------------------|


Bridge/Breakdown version
G----------------------------------------------|
D--------66-66---------------------------------|
A--------------44-56---------------------------|
E---654---------------3-334-446----------------|


G----------------------------------------------|
D----------------------------------------------|
A--------------44-56---------------------------|
E---654--44-44--------3-334-446----------------|
            
Hard to play? Try these video lessons and learn fast. | Correct




comments powered by Disqus
↑ Back to top | Tablatures and chords are parodies/interpretations of the original songs. You may use it for private study, scholarship, research or language learning purposes only