» » »

Let Me Go Chords (ver.1)

Artists:  A B C D E F G H I J K L M N O P Q R S T U V W X Y Z # 

Let Me Go Chords (ver.1)

Marvelous 3
Rating:
0/5 (0 votes)

Tabs too difficult? Try these video lessons and learn fast.
                Intro/after first chorus/ end of song

   -------------------3---------3------------------------------------------------|
   -----------------3---------3--------------------------------------------------|
   ---------------4---------4----------------------------------------------------|
   -------------5--------4-------------------------------------------------------|
   ------------------------------------------------------------------------------|
   ------------------------------------------------------------------------------|

Verses: A-G-D(two measures of A)
A                G                  D
turn the t.v off put down the cosmopolitan
A                 G              D
I'd like to think I'm not asking alot


Pre-Chorus: F-G(two measures of each)
F                                                     G(palm-mute)
And every other day I hear another brother sayin that I'm standing in line

Chorus:A-E-Bm-D
A    E  Bm              D
Please, just let me go, just let me go
A               E    Bm               D
And if it's all over just tell me so, just tell me so
A    E   Bm         D
Please, just let me go
C        C/B                G
and I won't be your shadow anymore

bridge:
   --------------------------------|---------------------------------------------|
   --------------------------------|---------------------------------------------|
   ---------------55555555555555---|---7777777----999999999--1111-13-13----------|
   --333333333----55555555555555---|---7777777-----------------------------------|
   --333333333----33333333333333---|---5555555----77777777---9999-11-11----------|
   --111111111---------------------|---------------------------------------------|
            
Tabs too difficult? Try these video lessons and learn fast.


comments powered by Disqus
↑ Back to top | Tablatures and chords are parodies/interpretations of the original songs. You may use it for private study, scholarship, research or language learning purposes only