» » »

Marvelous 3, Let Me Go Tabs (ver.1)

Artists:  A B C D E F G H I J K L M N O P Q R S T U V W X Y Z # 

Let Me Go Tabs (ver.1)

Marvelous 3 Tabs
 Rating:
4/5 (4 votes)
Let Me Go lessons Tabs too difficult? Try these video lessons and learn fast
1
                
   Title: Let me Go

   Another kick ass song from my favorite band

   -------------------3---------3------------------------------------------------
   -----------------3---------3--------------------------------------------------
   ---------------4---------4----------------------------------------------------
   -------------5--------4-------------------------------------------------------
   ------------------------------------------------------------------------------
   ------------------------------------------------------------------------------
   intro 

   -------------------3----2-----------------------------------------------------
   ------------2------3----3-----------------------------------------------------
   ------------2-----------2-----------------------------------------------------
   ------------2-----------------------------------------------------------------
   -------------------2----------------------------------------------------------
   -------------------3----------------------------------------------------------
   verse 

   ------------------------------------------------------------------------------
   ------------------------------------------------------------------------------
   ------------------------------------------------------------------------------
   ----------3333333333333---------55555555555555--------------------------------
   ----------3333333333333---------55555555555555--------------------------------
   ----------1111111111111---------33333333333333--------------------------------
   PRE CHORUS "every other day i hear another brother..... 

   --------------------2--|------0---0--0----------------------------------------
   -----2----0---------3--|------1---1--2----------------------------------------
   -----2----1----4----2--|------0---0--2----------------------------------------
   -----2----2----4-------|------2---0--2----------------------------------------
   -----0----2----2-------|------3---2--0----------------------------------------
   -----------------------|------------------------------------------------------
   chorus "i wont be ur shadow anymore ..... 

   --------------------------------|---------------------------------------------
   --------------------------------|---------------------------------------------
   ---------------55555555555555---|---7777777----999999999--1111-13-13----------
   --333333333----55555555555555---|---7777777-----------------------------------
   --333333333----33333333333333---|---5555555----77777777---9999-11-11----------
   --111111111---------------------|---------------------------------------------
   "u lost ur mind.... "i missed the smile ..... 
            
Submit corrections

comments powered by Disqus
↑ Back to top | Marvelous 3 Tabs for Let Me Go. Lyrics for acoustic guitar and electric guitar. 1 Tablatures and chords are parodies/interpretations of the original songs. You may use it for private study, scholarship, research or language learning purposes only