» » »

Marvelous 3, Get Over Tabs (ver.2)

Artists:  A B C D E F G H I J K L M N O P Q R S T U V W X Y Z # 

Get Over Tabs (ver.2)

Marvelous 3 Tabs
 Rating:
4/5 (4 votes)
Get Over lessons Tabs too difficult? Try these video lessons and learn fast
                Alright, this is Marv 3's new single off of Readysexgo, and it's awesome.  This whole CD
is just so rad, go buy it!  Just a few notes on this song, though... first of all, there 
are only 3 people in the band (hence the name Marvelous 3), one guitar, one bass, one 
drummer.  But there are two guitars playing in this song.  I didn't transcribe both 
of them... so when you hear other riffs being played by a different guitar, don't 
freak out and tell me "you suck! you missed the other guitar part!"  just deal with it 
and transcribe it if you want, but i'm not going to... this should be good enough.
Anyway, enjoy the song.


INTRO (clean, no distortion)
e|----------------------------------|
B|-----0-------0--------0-------0---|
G|-2-------1--------2-------1-------| play twice
D|---2---2---2---2----0---0---2---2-|
A|----------------------------------|
E|----------------------------------|

2ND PART OF INTRO (distortion)
e|-------------------------------------------------------|
B|-------------------------------------------------------|
G|----------------------------6-4~--4-6~--6-4~-----11-9~-|
D|-7-6~--6-7~--7-6~----9-7~---7-6~--6-7~--7-6~--6---9-7~-|
A|-------------------7--------------------------7--------|
E|-------------------------------------------------------|

VERSE
e|---------|---------|
B|-----0---|-----0---|
G|-2-------|-1-------|
D|---2---2-|---2---2-|
A|---------|---------|
E|---------|---------|
  play 4x    play 4x

PRE-CHORUS
e|------------------------------------------------------------------------|
B|------------------------------------------------------------------------|
G|-7-7-7-7-6-6-6-6-4-4-4-4-4-4-4--6--7-7-7-7-6-6-6-6/4/2------------------|
D|-7-7-7-7-6-6-6-6-4-4-4-4-4-4-4--6--7-7-7-7-6-6-6-6/4/2--2-2-2-2-2-2-2-2-|
A|-5-5-5-5-4-4-4-4-2-2-2-2-2-2-2--4--5-5-5-5-4-4-4-4/2/0--2-2-2-2-2-2-2-2-|
E|--------------------------------------------------------0-0-0-0-0-0-0-0-|

CHORUS
e|--------------------------------------------------------------------------
B|--------------------------------------------------------------------------
G|----------7-7-xxxx-9-9-xxxx-9-9-xxxx-----------7-7-xxxx-9-9-xxxx-x9-x7-6--
D|-7-7-xxxx-7-7-xxxx-9-9-xxxx-9-9-xxxx--7-7-xxxx-7-7-xxxx-9-9-xxxx-x9-x7-6--
A|-7-7-xxxx-5-5-xxxx-7-7-xxxx-7-7-xxxx--7-7-xxxx-5-5-xxxx-7-7-xxxx-x7-x5-4--
E|-5-5-xxxx-----------------------------5-5-xxxx----------------------------

  ----------------------------------------------|
  ----------------------------------------------|
  -----------------6-6-6-------7-7-6-6-4-4------|
  -7-7-7-7-9-9-9-9-6-6-6-4~-2--7-7-6-6-4-4-2--7-|
  -7-7-7-7-9-9-9-9-4-4-4-4~-2--5-5-4-4-2-2-2--7-|
  -5-5-5-5-7-7-7-7-------2~-0--------------0--5-|

play 2nd part of intro

verse

pre-chorus

chorus

BRIDGE
e|-------------------------------------------------------------------|
B|-------------------------------------------------------------------|
G|-7-7-7-7-7-7-7-7-7-6-6-6-6-6-6-6/4/2-------------------------------|
D|-7-7-7-7-7-7-7-7-7-6-6-6-6-6-6-6/4/2--2222-2--2222-2-2222-2-2222-2-| play twice
A|-5-5-5-5-5-5-5-5-5-4-4-4-4-4-4-4/2/0--2222-2--2222-2-2222-2-2222-2-|
E|--------------------------------------0000-0--0000-0-0000-0-0000-0-|
                                        ....    ....   ....   ....
                                         pm      pm     pm     pm
the end of this bridge is different the second time, but i didn't catch it,
i'm tired, so if someone wants to get that, please feel free.

chorus

END: play 2nd part of intro


That's it.  Don't e-mail me and complain about how I missed some parts or what not, 
because I know I did, and telling me again won't do me or you any good.  Feel free to 
transcribe whatever I missed.
            
Submit corrections

comments powered by Disqus
↑ Back to top | Marvelous 3 Tabs for Get Over. Lyrics for acoustic guitar and electric guitar. Tablatures and chords are parodies/interpretations of the original songs. You may use it for private study, scholarship, research or language learning purposes only