» » »

Maroon 5, Until Youre Over Me Tabs (ver.1)

Artists:  A B C D E F G H I J K L M N O P Q R S T U V W X Y Z # 

Until Youre Over Me Tabs (ver.1)

Maroon 5 Tabs
 Rating:
4/5 (4 votes)
Until Youre Over Me lessons Tabs too difficult? Try these video lessons and learn fast
1
                Intro
Keyboard Part:
E|----------|
B|--11--10--|
G|--10--10--|
D|----------|
A|----------|
E|----------|

Verse Guitar Riff
E|----------------------|
B|----------------------|
G|-------10-12-10-------|
D|-10-12----------12----|
A|----------------------|
E|----------------------|
    P.M. ------------->

Chorus
      Bb5              C5              F5                 D5
E|----------|----------|----------|----------------|
B|----------|----------|----------|----------------|
G|--3----3--|--5----5--|----------|--7--7--7--7----|
D|--3----3--|--5----5--|--3----3--|--7--7--7--7----|  x3
A|--1----1--|--3----3--|--3----3--|--5--5--5--5----|
E|----------|----------|--1----1--|----------------|

      Bb5                                C5
E|--------------------|--------------------|
B|--------------------|--------------------|
G|--3-3-3-3-3-3-3-3---|--5-5-5-5-5-5-5-5---|
D|--3-3-3-3-3-3-3-3---|--5-5-5-5-5-5-5-5---|
A|--1-1-1-1-1-1-1-1---|--3-3-3-3-3-3-3-3---|
E|--------------------|--------------------|

Bridge
Dm  Em  F  G  x4

Repeat Chorus x2

Outro
F   
            
Submit corrections

comments powered by Disqus
↑ Back to top | Maroon 5 Tabs for Until Youre Over Me. Lyrics for acoustic guitar and electric guitar. 1 Tablatures and chords are parodies/interpretations of the original songs. You may use it for private study, scholarship, research or language learning purposes only