» » »

Maroon 5, Nothing Lasts Forever Tabs (ver.6)

Artists:  A B C D E F G H I J K L M N O P Q R S T U V W X Y Z # 

Nothing Lasts Forever Tabs (ver.6)

Maroon 5 Tabs
 Rating:
4/5 (4 votes)
Nothing Lasts Forever lessons Tabs too difficult? Try these video lessons and learn fast
1
                



 Tunning : D A# D  G B d


 Intro-

d |--------0----0----0--------------------------|
B |----------------------------2---2----2-------|
G |----2-----2----2----2-2---2---2---2----2-2---|
D |---0-0-----0----0----0-----------------------|
A#|-------------------------3-3---3---3----3----|
d |---------------------------------------------|

d |-------4--------------------4----4-----------|
B |------------5----5----------------5---5------|
G |----4----4----4----4-----4----4----4----4-4--|
D |---5-5----5----5----5---5-5----5----5----5---|
A#|---------------------------------------------|
d |---------------------------------------------|


 Verse 1

d |--------0----0----0--------------------------|
B |----------------------------2---2----2-------|
G |----2-----2----2----2-2---2---2---2----2-2---|
D |---0-0-----0----0----0-----------------------|
A#|-------------------------3-3---3---3----3----|
d |---------------------------------------------|

d |-------4--------------------4----4-----------|
B |------------5----5----------------5---5------|
G |----4----4----4----4-----4----4----4----4-4--|
D |---5-5----5----5----5---5-5----5----5----5---|
A#|---------------------------------------------|
d |---------------------------------------------|

Repeat 4 times


 Chorus(Guitar 1)

d |--------0----0----0--------------------------|
B |----------------------------2---2----2-------|
G |----2-----2----2----2-2---2---2---2----2-2---|
D |---0-0-----0----0----0-----------------------|
A#|-------------------------3-3---3---3----3----|
d |---------------------------------------------| Repeat 2 times

d |-------------------------|
B |-------0----0----0-------|
G |----0----0----0----0-0---|
D |---0-0----0----0----0----|
A#|-------------------------|
E |-------------------------| Repeat 2 times

d |-------------------------|
B |-------------------------|
G |----0--3-0--3-0--3-0-0---|
D |---0-0----0----0----0----|
A#|-------------------------|
E |-------------------------| Repeat 2 times

d |---4-----4-----------------------------------|
B |---3-----3-----------------------------------|
G |---2-----2-----------------------------------|
D |---0-----0-----------------------------------|
A#|---------------------------------------------|
E |---------------------------------------------| 

 Chorus(Guitar 2)

d |---0--0--0--0-----4--4--4--4-----------------|
B |---3--2--3--2-----4--5--4--5-----------------|
G |---2--2--2--2-----4--4--4--4-----------------|
D |---0--0--0--0-----5--5--5--5-----------------|
A#|---------------------------------------------|
E |---------------------------------------------|

 Verse 2 
- Same as the verse 1


 Chorus
*** It's right tunning to play my tab(D A# D  G B d)
*** I'll update the rest soon
            
Submit corrections

comments powered by Disqus
↑ Back to top | Maroon 5 Tabs for Nothing Lasts Forever. Lyrics for acoustic guitar and electric guitar. 1 Tablatures and chords are parodies/interpretations of the original songs. You may use it for private study, scholarship, research or language learning purposes only