» » »

Maroon 5, Miss You Love You Tabs (ver.1)

Artists:  A B C D E F G H I J K L M N O P Q R S T U V W X Y Z # 

Miss You Love You Tabs (ver.1)

Maroon 5 Tabs
 Rating:
4/5 (4 votes)
Miss You Love You lessons Tabs too difficult? Try these video lessons and learn fast
                (Intro)
Kinda my first tab, an easy one though, really happy they recorded/produced it, great 
of Maroon 5.

Erm, as I mentioned my first tab, and it was done without a guitar, so try to work 
it, it's basically all there, the noting scale etc...

E|----------|---------|-------|------|
B|----------|---------|-------|------|
G|----------|---------|-------|------|     (REPEAT x2)
D|------4-5-|-----4-5-|-5-4-4-|---5--|
A|--5-4-----|-5-4-----|-------|-5----|
E|----------|---------|-------|------|


OR


            d u         d u       d u     d
            w p         w p       w p     w
            n           n         n       n
E|----------x-x---------x-x-------x-x-----x-|
B|----------x-x---------x-x-------x-x-----x-|
G|----------x-x---------x-x-------x-x-----x-|    (REPEAT x2)
D|------5-4-x-x-----5-4-x-x-5-4-4-x-x-----x-|
A|--5-5-----x-x-5-5-----x-x-------x-x-5-4-x-|
E|----------x-x---------x-x-------x-x-----x-|

Enjoy and comment :)
            
Submit corrections

comments powered by Disqus
↑ Back to top | Maroon 5 Tabs for Miss You Love You. Lyrics for acoustic guitar and electric guitar. Tablatures and chords are parodies/interpretations of the original songs. You may use it for private study, scholarship, research or language learning purposes only