» » »

Maroon 5, Little Of Your Time Tabs (ver.1)

Artists:  A B C D E F G H I J K L M N O P Q R S T U V W X Y Z # 

Little Of Your Time Tabs (ver.1)

Maroon 5 Tabs
Rating:
0/5 (0 votes)
Hard to play? Try these video lessons and learn fast.
                Intro:

e|-----------------5---3---x--x---2--x---1--0--------------------------------------|
B|-----------------5---3---x--x---2--x---1--0--------------------------------------|
G|--3--3--2-2------6---4---x--x---3--x---2--1--------------------------------------|
D|--4--4--3-3------7---5---x--x---4--x---3--2--------------------------------------|
A|--4--4--3-3------7---5---x--x---4--x---3--2--------------------------------------|
E|--2--2--1-1------5---3---x--x---2--x---1--0--------------------------------------|


Verse:

Repeat
e|--6---5---3---x--x----2---x---1---0------------------------|
B|--6---5---3---x--x----2---x---1---0------------------------|
G|--7---6---4---x--x----3---x---2---1------------------------|
D|--8---7---5---x--x----4---x---3---2------------------------|
A|--8---7---5---x--x----4---x---3---2------------------------|
E|--6---5---3---x--x----2---x---1---0------------------------|



Pre Chorus:


e|--6---5---3---x--x----2--2---1--1-----------------------------|
B|--6---5---3---x--x----2--3---1--1-----------------------------|
G|--7---6---4---x--x----3--3---2--2-----------------------------|
D|--8---7---5---x--x----4--4---3--3-----------------------------|
A|--8---7---5---x--x----4--4---3--3-----------------------------|
E|--6---5---3---x--x----2--2---1--1-----------------------------|



Chorus:

Play x2
e|---------------------------------------------------------------------------|
B|---------------------------------------------------------------------------|
G|---0--0-----7-7---7--7-----------------------------------------------------|
D|---2--2-----7-7---9--9---7--7--7-------------------------------------------|
A|---2--2-----5-5---9--9---7--7--7-------------------------------------------|
E|---0--0-----------7--7---5--5--5-------------------------------------------|



e|-----------------------------0-------2--------0--------2-----------------------|
B|-----------------------------0-------2--------0--------2-----------------------|
G|-----------------------------0-------3--------0--------3-----------------------|
D|---5--8-9----11--11--11------2-------4--------2--------4-----------------------|
A|---5--8-9----10--10--10------2-------4--------2--------4-----------------------|
E|---3--6-7----9---9---9-------0(x3)---2(x3)----0(x3)----2(x3)-------------------|
            

comments powered by Disqus
↑ Back to top | Maroon 5 Tabs for Little Of Your Time. Lyrics for acoustic guitar and electric guitar. Tablatures and chords are parodies/interpretations of the original songs. You may use it for private study, scholarship, research or language learning purposes only