» » »

Goodnight Goodnight Bass tabs (ver.1)

Artists:  A B C D E F G H I J K L M N O P Q R S T U V W X Y Z # 

Goodnight Goodnight Bass tabs (ver.1)

Maroon 5
Rating:
5/5 (1 vote)

Hard to play? Try these video lessons and learn fast.
                Verse 1:
G|------------------------------------|
D|------------------------------------|x2
A|-2-2--2-2------------3/5-5---7------|
E|-----------3-3--3-3-----------5-5---|

Bridge:
G|-----------------------|
D|-----------------------|
A|-----------------------|
E|-5-5-5-5--17-17-17-17--|

Chorus:
G|------------------------|-------------------------|
D|------------------------|-------------------------|
A|-5-5---5-5----7-7----7-7|-5-5----5-5----7-7----7-7|
E|------5-----7------7----|------5------7------7----|

Chorus (continued):
G|----|---------------------------|
D|----|---------------------------|x2
A|-7-9|-10-10-10-99999-777-55555--|
E|----|---------------------------|

End of chorus:
G|-------------------------------------------|
D|-------------------------------------------|
A|-------------------------------------------|
E|-5-5-5-5-5-5-5-5--17-17-17-17-17-17-17-17--|

Pre-verse:
G|---------------------|
D|---------------------|
A|-2-2--2-2------------|
E|-----------3-3--3-3--|

Verse 2:
G|------------------------------------|
D|------------------------------------|x2
A|-2-2--2-2------------3/5-5--7-------|
E|-----------3-3--3-3-----------5-5---|

Bridge:
G|-----------------------|
D|-----------------------|
A|-----------------------|
E|-5-5-5-5--17-17-17-17--|

Chorus:
G|------------------------|-------------------------|
D|------------------------|-------------------------|
A|-5-5---5-5----7-7----7-7|-5-5----5-5----7-7----7-7|
E|------5-----7------7----|------5------7------7----|

Chorus (continued):
G|----|---------------------------|
D|----|---------------------------|x2
A|-7-9|-10-10-10-99999-777-55555--|
E|----|---------------------------|

End of chorus:
G|-------------------------------------------|
D|-------------------------------------------|
A|-------------------------------------------|
E|-5-5-5-5-5-5-5-5--17-17-17-17-17-17-17-17--|

Breakdown:
G|-------------------------------------------|
D|-------------------------------------------|
A|---5--5-5----5--5-5------------------------|
E|-5---------5---------5-7--7-7--7-5-5-------|

Bridge:
G|-----------------------|
D|-----------------------|
A|-----------------------|
E|-5-5-5-5--17-17-17-17--|

Chorus:
G|------------------------|-------------------------|
D|------------------------|-------------------------|
A|-5-5---5-5----7-7----7-7|-5-5----5-5----7-7----7-7|
E|------5-----7------7----|------5------7------7----|

Chorus (continued):
G|----|---------------------------|
D|----|---------------------------|x3
A|-7-9|-10-10-10-99999-777-55555--|
E|----|---------------------------|

End of chorus:
G|-------------------------------------------|
D|-------------------------------------------|
A|-------------------------------------------|
E|-5-5-5-5-5-5-5-5--17-17-17-17-17-17-17-17--|


Outro (play this 'til end):
G|---|
D|---|
A|-5-|
E|---|
            
Hard to play? Try these video lessons and learn fast. | Correct




comments powered by Disqus
↑ Back to top | Tablatures and chords are parodies/interpretations of the original songs. You may use it for private study, scholarship, research or language learning purposes only