>
 >
You Waste Your Time

You Waste Your Time Guitar Tabs

Mark Tremonti - You Waste Your Time chords, tabs, tablatures, lyrics

Guitar lessons | Add/correct | Request | Top 50 tabs Artists:  A B C D E F G H I J K L M N O P Q R S T U V W X Y Z 0-9

You Waste Your Time Guitar Tabs – Mark Tremonti

CD, Sheet music, Poster

Do you like You Waste Your Time? Share with your friends now
TabsTabs v2
                              You Waste Your Time                               


                                                                   Mark Tremonti
Lead Guitar
enjoy, comment & rate!



              PM PM PM >   >  > PM >  >  > PM >   >  > PM >   
              S  S  S  S   S  S S  S  S  S S  S   S  S S  S   
D#||-------|-------------------------------------------------|
A#||-------|-------------------------------------------------|
F#||-------|-------------------------------------------------|
C#||-------|-------------------------------------------------|
G#||-------|-----------6h-10p-6----5h-6p-5----6h-10p-6----5h-|
C#||-------|--0--0--0-----------0----------0-----------0-----|


  >  > PM PM PM PM PM PM PM PM PM PM           
  S  S S  S  S  S  S  S  T  T  S  S  S. T E.   
----------------------------------------------|
----------------------------------------------|
----------------------------------------------|
-------------------------------------1--x-1---|
--6p-5-------------------------------1--x-1---|
-------0--0--0--0--0--0--0--0--0--0--1--x-1---|


  PM PM PM   >   >  > PM >  >  > PM >   >  > PM >   
  S  T  T  S S   S  S S  S  S  S S  S   S  S S  S   
---------------------------------------------------|
---------------------------------------------------|
---------------------------------------------------|
---------------------------------------------------|
-------------6h-10p-6----5h-6p-5----6h-10p-6----5h-|
--0--0--0--0----------0----------0-----------0-----|


  >  > PM PM PM PM      PM      PM            
  S  S S  S  S  S   S S S   S S S   S   E.    
---------------------------------------------|
---------------------------------------------|
---------------------------------------------|
---------------------------------------------|
--6p-5-------------12-8----11-7----10-<>6~---|
-------0--0--0--0-------0-------0------------|


  PM PM PM >   >  > PM >  >  > PM >   >  > PM >   
  S  S  S  S   S  S S  S  S  S S  S   S  S S  S   
-------------------------------------------------|
-------------------------------------------------|
-------------------------------------------------|
-------------------------------------------------|
-----------6h-10p-6----5h-6p-5----6h-10p-6----5h-|
--0--0--0-----------0----------0-----------0-----|


  >  > PM PM PM PM PM PM PM PM PM PM           
  S  S S  S  S  S  S  S  T  T  S  S  S. T E.   
----------------------------------------------|
----------------------------------------------|
----------------------------------------------|
-------------------------------------1--x-1---|
--6p-5-------------------------------1--x-1---|
-------0--0--0--0--0--0--0--0--0--0--1--x-1---|


  PM PM PM   >   >  > PM >  >  > PM >   >  > PM >   
  S  T  T  S S   S  S S  S  S  S S  S   S  S S  S   
---------------------------------------------------|
---------------------------------------------------|
---------------------------------------------------|
---------------------------------------------------|
-------------6h-10p-6----5h-6p-5----6h-10p-6----5h-|
--0--0--0--0----------0----------0-----------0-----|


  >  > PM PM PM PM      PM      PM              ^                 
  S  S S  S  S  S   S S S   S S S   S   E.      W                 
---------------------------------------------|-------------------|
---------------------------------------------|--3----------------|
---------------------------------------------|--2----------------|
---------------------------------------------|--0----------------|
--6p-5-------------12-8----11-7----10-<>6~---|--0----------------|
-------0--0--0--0-------0-------0------------|--0----------------|


                         ^                                        
  Q.     Q    E.  E.     W                   Q.     Q    E.  E.   
---------0------------|-------------------|---------0------------|
--L-----------3-------|--3----------------|--L-----------3-------|
--L------L----L---2---|--2----------------|--L------L----L---2---|
--L------L----L---L---|--0----------------|--L------L----L---L---|
--L------L----L---L---|--0----------------|--L------L----L---L---|
--L------L----L---L---|--3----------------|--L------L----L---L---|


    ^                    ^                    ^                        
    W                    W                    H        E   S  E   E.   
----------------------|-------------------|---------------------------|
----------------------|-------------------|---------------------------|
--(12)----------------|--7----------------|--11--------L--11-12--12---|
---12-----------------|--7----------------|---0--------L---L--L---L---|
---10-----------------|--5----------------|---9--------L---9-10--10---|
---10-----------------|--5----------------|---0--------L---L--L---L---|


                               TP                    TP                
   S  H        E.   Q        S H.           E.     S H.           E.   
--------------------------|---------------------|---------------------|
--------------------------|---------------------|---------------------|
--12-11--------L----------|--5-7------------L---|--5-7------------L---|
---L--L--------L----------|---------------------|---------------------|
--10--9--------L---12\----|--3-5------------L---|--3-5------------L---|
---L--L--------L---12\----|---------------------|---------------------|


    TP                    TP                  TP                
  S H.           E.     S H.           E.     W                 
---------------------|---------------------|-------------------|
---------------------|---------------------|-------------------|
--5-7------------L---|--5-7------------L---|--5----------------|
---------------------|---------------------|-------------------|
--3-5------------L---|--3-5------------L---|--3----------------|
---------------------|---------------------|-------------------|


  TP     TP              TP                   TP                      
  Q.     H        E      W                    H        S S S S Q      
---------------------|--------------------|--------------------------|
---------------------|--------------------|--------------------------|
--4------5--------L--|--11----------------|--12--------L-------------|
---------------------|--------------------|------------------3-------|
--2------3--------L--|---9----------------|--10--------L-3-5---5~----|
---------------------|--------------------|--------------------------|


  Q     Q.      E.  E.     Q    Q    S S E.  E.     Q     Q.      E.  E.   
------------------------|------------------------|------------------------|
-------10---------------|-------3----------------|-------10---------------|
-------12b------8---8---|-------2----------------|-------12b------8---8---|
--3-------------6---6---|--0----L----5-4-5---5---|--3-------------6---6---|
--3-------------6---6---|--0----L----3-2-3---3---|--3-------------6---6---|
--3-------------6---6---|--0----L----------------|--3-------------6---6---|


  Q    Q.     E  S E.     Q     Q.      E.  E.     Q    Q    S S E.  E.   
-----------------------|------------------------|------------------------|
-------3---------------|-------10---------------|-------3----------------|
-------2---------------|-------12b------8---8---|-------2----------------|
--0----L------5--L-3---|--3-------------6---6---|--0----L----5-4-5---5---|
--0----L------5--L-3---|--3-------------6---6---|--0----L----3-2-3---3---|
--0----L------5--L-3---|--3-------------6---6---|--0----L----------------|


                           PM PM PM >   >  > PM >  >  > PM >   >  > PM >   
  Q     Q.      E.  E.     S  S  S  S   S  S S  S  S  S S  S   S  S S  S   
------------------------|-------------------------------------------------|
-------10---------------|-------------------------------------------------|
-------12b--------------|-------------------------------------------------|
--3-------------6---6---|-------------------------------------------------|
--3-------------6---6---|-----------6h-10p-6----5h-6p-5----6h-10p-6----5h-|
--3-------------6---6---|--0--0--0-----------0----------0-----------0-----|


  >  > PM PM PM PM PM PM PM PM PM PM           
  S  S S  S  S  S  S  S  T  T  S  S  S. T E.   
----------------------------------------------|
----------------------------------------------|
----------------------------------------------|
-------------------------------------1--x-1---|
--6p-5-------------------------------1--x-1---|
-------0--0--0--0--0--0--0--0--0--0--1--x-1---|


  PM PM PM >   >  > PM >  >  > PM >   >  > PM >   
  S  S  S  S   S  S S  S  S  S S  S   S  S S  S   
-------------------------------------------------|
-------------------------------------------------|
-------------------------------------------------|
-------------------------------------------------|
-----------6h-10p-6----5h-6p-5----6h-10p-6----5h-|
--0--0--0-----------0----------0-----------0-----|


  >  > PM PM PM PM      PM      PM              ^                 
  S  S S  S  S  S   S S S   S S S   S   E.      W                 
---------------------------------------------|-------------------|
---------------------------------------------|--3----------------|
---------------------------------------------|--2----------------|
---------------------------------------------|--0----------------|
--6p-5-------------12-8----11-7----10-<>6~---|--0----------------|
-------0--0--0--0-------0-------0------------|--0----------------|


                         ^                                        
  Q.     Q    E.  E.     W                   Q.     Q    E.  E.   
---------0------------|-------------------|---------0------------|
--L-----------3-------|--3----------------|--L-----------3-------|
--L------L----L---2---|--2----------------|--L------L----L---2---|
--L------L----L---L---|--0----------------|--L------L----L---L---|
--L------L----L---L---|--0----------------|--L------L----L---L---|
--L------L----L---L---|--3----------------|--L------L----L---L---|


    ^                    ^                    ^                        
    W                    W                    H        E   S  E   E.   
----------------------|-------------------|---------------------------|
----------------------|-------------------|---------------------------|
--(12)----------------|--7----------------|--11--------L--11-12--12---|
---12-----------------|--7----------------|---0--------L---L--L---L---|
---10-----------------|--5----------------|---9--------L---9-10--10---|
---10-----------------|--5----------------|---0--------L---L--L---L---|


                               TP                    TP                
   S  H        E.   Q        S H.           E.     S H.           E.   
--------------------------|---------------------|---------------------|
--------------------------|---------------------|---------------------|
--12-11--------L----------|--5-7------------L---|--5-7------------L---|
---L--L--------L----------|---------------------|---------------------|
--10--9--------L---12\----|--3-5------------L---|--3-5------------L---|
---L--L--------L---12\----|---------------------|---------------------|


    TP                    TP                  TP                
  S H.           E.     S H.           E.     W                 
---------------------|---------------------|-------------------|
---------------------|---------------------|-------------------|
--5-7------------L---|--5-7------------L---|--5----------------|
---------------------|---------------------|-------------------|
--3-5------------L---|--3-5------------L---|--3----------------|
---------------------|---------------------|-------------------|


  TP     TP              TP                   TP                      
  Q.     H        E      W                    H        S S S S Q      
---------------------|--------------------|--------------------------|
---------------------|--------------------|--------------------------|
--4------5--------L--|--11----------------|--12--------L-------------|
---------------------|--------------------|------------------3-------|
--2------3--------L--|---9----------------|--10--------L-3-5---5~----|
---------------------|--------------------|--------------------------|


  Q     Q.      E.  E.     Q    Q    S S E.  E.     Q     Q.      E.  E.   
------------------------|------------------------|------------------------|
-------10---------------|-------3----------------|-------10---------------|
-------12b------8---8---|-------2----------------|-------12b------8---8---|
--3-------------6---6---|--0----L----5-4-5---5---|--3-------------6---6---|
--3-------------6---6---|--0----L----3-2-3---3---|--3-------------6---6---|
--3-------------6---6---|--0----L----------------|--3-------------6---6---|


  Q    Q.     E  S E.     Q     Q.      E.  E.     Q    Q    S S E.  E.   
-----------------------|------------------------|------------------------|
-------3---------------|-------10---------------|-------3----------------|
-------2---------------|-------12b------8---8---|-------2----------------|
--0----L------5--L-3---|--3-------------6---6---|--0----L----5-4-5---5---|
--0----L------5--L-3---|--3-------------6---6---|--0----L----3-2-3---3---|
--0----L------5--L-3---|--3-------------6---6---|--0----L----------------|


                   PM PM PM      PM PM PM PM PM PM PM       PM   PM PM      
                   |--3--|                                                  
  Q     Q.      E  E  E  E     S S  S  S  S  S  T  T  S S S S  S S  S  S S  
----------------------------|----------------------------------------------|
-------10-------------------|----------------------------------------------|
-------12b------------------|----------------------------------------------|
--3-------------6--0--0--0--|--6-0--0--0--0--0--0--0--0-6-0-0--0-0--0--6-0-|
--3-------------6--0--0--0--|--6-0--0--0--0--0--0--0--0-6-0-0--0-0--0--6-0-|
--3-------------6--0--0--0--|--6-0--0--0--0--0--0--0--0-6-0-0--0-0--0--6-0-|


      PM PM PM PM PM PM     PM   PM PM      
  S S S  S  S  S  S  S  S S S  S S  S  S S  
-------------------------------------------|
-------------------------------------------|
-------------------------------------------|
--6-0-0--6--5--3--0--3--6-0-0--0-0--0--6-0-|
--6-0-0--6--5--3--0--3--6-0-0--0-0--0--6-0-|
--6-0-0--6--5--3--0--3--6-0-0--0-0--0--6-0-|


    PM PM PM PM PM PM PM       PM   PM PM      
  S S  S  S  S  S  T  T  S S S S  S S  S  S S  
----------------------------------------------|
----------------------------------------------|
----------------------------------------------|
--6-0--0--0--0--0--0--0--0-6-0-0--0-0--0--6-0-|
--6-0--0--0--0--0--0--0--0-6-0-0--0-0--0--6-0-|
--6-0--0--0--0--0--0--0--0-6-0-0--0-0--0--6-0-|


      PM PM PM PM PM PM     PM   PM PM                                  
  S S S  S  S  S  S  S  S S S  S S  S  S S     H          S  Q     E.   
-------------------------------------------|--10---------10------------|
-------------------------------------------|--13b-----------13~----L---|
-------------------------------------------|---------------------------|
--6-0-0--6--5--3--0--3--6-0-0--0-0--0--6-0-|---------------------------|
--6-0-0--6--5--3--0--3--6-0-0--0-0--0--6-0-|---------------------------|
--6-0-0--6--5--3--0--3--6-0-0--0-0--0--6-0-|---------------------------|


      W      W      W      W      W    
   S  E   S  E   S  E   S  E   S  E.   
--------------------------------------|
--11-----12-----13-----14-----15------|
-----14-----15-----16-----17-----18---|
--------------------------------------|
--------------------------------------|
--------------------------------------|


   S  T  T  S  S  T  T  S  S  T  T  S  S  T  T  S  T    T  T  T  S  S  
--15-13-------13-10---------------------------------------------------|
--------15-13-------13-10---------------------------------------------|
--------------------------17-15-------12-10-------12br--L-10----------|
--------------------------------17-15-------12-10------------12-10----|
-------------------------------------------------------------------12-|
----------------------------------------------------------------------|


   S  S  S  S  S  S  S  Q     E.    E     
-----------------------------------------|
-----------------------------------------|
--------10----10------------------(12)\--|
--10-12----12----12-10-12~----L----12\---|
-----------------------------------------|
-----------------------------------------|


   T  T  T  T  T  T  T  T  T  T  T  T  T  T  T  T  T  T  T  T  T  T  T  T  T  T 
--13----------------13----------------13----------------13----------------13----
-----17-13-17-13-17----17-13-17-13-17----17-13-17-13-17----17-13-17-13-17----17-
--------------------------------------------------------------------------------
--------------------------------------------------------------------------------
--------------------------------------------------------------------------------
--------------------------------------------------------------------------------


   T  T  T  T  T  T  T  T  T  T  T  T  T  T  T  T  T  T  S  S  T  T  T  T   T   
--15----------------15----------------15----------------15-17-15-17-15-13h-15p-1
-----17-13-17-13-17----17-13-17-13-17----17-13-17-13-17-------------------------
--------------------------------------------------------------------------------
--------------------------------------------------------------------------------
--------------------------------------------------------------------------------
--------------------------------------------------------------------------------


   T   T   T   T   T   T T   T   T   T  T  T T   T  T  T  T  T  T   T  T  T  T T
--------------------------------------------------------------------------------
--10h-12h-13p-12p-10h-----------------------------------------------------------
----------------------12-9h-10h-12p-10p-9----9h-10p-9---------------------------
------------------------------------------12----------12-10p-7h-9h-10p-9p-7----7
----------------------------------------------------------------------------10--
--------------------------------------------------------------------------------


                              NH  NH  NH                          
  |--3--|  |--3--|                                                
  E  E  E  E  E  E    Q       S.  S.  S    Q     Q.      E.  E.   
----------------------------------------|------------------------|
----------------------------------------|-------10---------------|
----------------------------<>5---------|-------12b------8---8---|
--------------------------------<>5-----|--3-------------6---6---|
--8--7--5--7--5--3--<>5b------------<>5-|--3-------------6---6---|
----------------------------------------|--3-------------6---6---|


  Q    Q    S S E.  E.     Q     Q.      E.  E.     Q    Q.     E  S E.   
------------------------|------------------------|-----------------------|
-------3----------------|-------10---------------|-------3---------------|
-------2----------------|-------12b------8---8---|-------2---------------|
--0----L----5-4-5---5---|--3-------------6---6---|--0----L------5--L-3---|
--0----L----3-2-3---3---|--3-------------6---6---|--0----L------5--L-3---|
--0----L----------------|--3-------------6---6---|--0----L------5--L-3---|


  PM                                                                       
  Q     Q.      E.  E.     Q    Q    S S E.  E.     Q     Q.      E.  E.   
------------------------|------------------------|------------------------|
-------10---------------|-------3----------------|-------10---------------|
-------12b------8---8---|-------2----------------|-------12b------8---8---|
--x-------------6---6---|--0----L----5-4-5---5---|--3-------------6---6---|
--x-------------6---6---|--0----L----3-2-3---3---|--3-------------6---6---|
--x-------------6---6---|--0----L----------------|--3-------------6---6---|


  Q    Q.      S S  S   S  S S    Q     Q.      E.  E.   
-------------------------------|------------------------|
-------3-----------------------|-------10---------------|
-------2-----------------------|-------12b------8---8---|
--0----L-----------------------|--3-------------6---6---|
--0----L-----------------------|--3-------------6---6---|
--0----L------10-8-10s-12-10-8-|--3-------------6---6---|


  Q    Q    S S E.  E.     Q     Q.      E.  E.   
------------------------|------------------------|
-------3----------------|-------10---------------|
-------2----5-4-5---5---|-------12b--------------|
--0----L----------------|--3-------------6---6---|
--0----L----3-2-3---3---|--3-------------6---6---|
--0----L----------------|--3-------------6---6---|


  PM PM PM >   >  > PM >  >  > PM >   >  > PM >   
  S  S  S  S   S  S S  S  S  S S  S   S  S S  S   
-------------------------------------------------|
-------------------------------------------------|
-------------------------------------------------|
-------------------------------------------------|
-----------6h-10p-6----5h-6p-5----6h-10p-6----5h-|
--0--0--0-----------0----------0-----------0-----|


  >  > PM PM PM PM PM PM PM PM PM PM           
  S  S S  S  S  S  S  S  T  T  S  S  S. T E.   
----------------------------------------------|
----------------------------------------------|
----------------------------------------------|
-------------------------------------1--x-1---|
--6p-5-------------------------------1--x-1---|
-------0--0--0--0--0--0--0--0--0--0--1--x-1---|


  PM PM PM   >   >  > PM >  >  > PM >   >  > PM >   
  S  T  T  S S   S  S S  S  S  S S  S   S  S S  S   
---------------------------------------------------|
---------------------------------------------------|
---------------------------------------------------|
---------------------------------------------------|
-------------6h-10p-6----5h-6p-5----6h-10p-6----5h-|
--0--0--0--0----------0----------0-----------0-----|


  >  > PM PM PM PM      PM      PM            
  S  S S  S  S  S   S S S   S S S   S   E.    
---------------------------------------------|
---------------------------------------------|
---------------------------------------------|
---------------------------------------------|
--6p-5-------------12-8----11-7----10-<>6~---|
-------0--0--0--0-------0-------0------------|


  PM PM PM       PM       PM       PM    
  S  S  S  S S S S  S S S S  S S S S  S  
----------------------------------------|
----------------------------------------|
----------------------------------------|
----------------------------------------|
----------------------------------------|
--0--0--0--1-5-1-0--0-1-0-0--1-5-1-0--0-|


      PM PM PM PM PM PM PM PM PM PM           
  S S S  S  S  S  S  S  T  T  S  S  S. T E.   
---------------------------------------------|
---------------------------------------------|
---------------------------------------------|
------------------------------------1--x-1---|
------------------------------------1--x-1---|
--1-0-0--0--0--0--0--0--0--0--0--0--1--x-1---|


  PM PM PM PM       PM       PM       PM    
  S  T  T  S  S S S S  S S S S  S S S S  S  
-------------------------------------------|
-------------------------------------------|
-------------------------------------------|
-------------------------------------------|
-------------------------------------------|
--0--0--0--0--1-5-1-0--0-1-0-0--1-5-1-0--0-|


      PM PM PM PM      PM      PM             
  S S S  S  S  S   S S S   S S S   S   E.     
--------------------------------------------||
--------------------------------------------||
--------------------------------------------||
--------------------------------------------||
------------------12-8----11-7----10-<>6~---||
--1-0-0--0--0--0-------0-------0------------||




Duration Legend
---------------
W - whole
H - half
Q - quarter
E - 8th
S - 16th
T - 32nd
X - 64th
. - note dotted
|-n-|  - n-tuplets


Tablature Legend
----------------
L - tied note
x - dead note
g - grace note
(n) - ghost note
> - accentuded note
NH - natural harmonic
AH - artificial harmonic
TH - tapped harmonic
SH - semi harmonic
PH - pitch harmonic
h - hammer on
p - pull off
b - bend
br - bendRelease
pb - preBend
pbr - preBendRelease
brb - bendReleaseBend
\n/ - tremolo bar dip
\n - tremolo bar dive
-/n - tremolo bar Release up
/n\ - tremolo bar inverted dip
/n - tremolo bar return
-\n - tremolo bar Release down
S - shift slide
s - legato slide
/ -  slide into from below or out of upwards
\ -  slide into from above or out of downwards
~ - vibrato
W - wide vibrato
tr - trill
TP - tremolo picking
T - tapping
S - slap
P - pop
< - fade in
^ - brush up
v - brush down





Comments


Popular Mark Tremonti tabs & chords
All I Was Intro Tabs
Brains Intro Tabs
Decay Intro Tabs
New Way Out Tabs
Proof Tabs
So Youre Afraid 1 Tabs
So Youre Afraid 2 Tabs
The Things Ive Seen 1 Tabs
You Waste Your Time 1 Tabs
New Way Out Ukulele


Song lyrics



↑ Back to top | Tablatures and chords are parodies/interpretations of the original songs. You may use it for private study, scholarship, research or language learning purposes only
© 2014 AZChords.com Contact us | Privacy policy | DMCA | Add/correct tabs | Request tabs | Top 50 tabs