» » »

Mark Tremonti, The Things Ive Seen Tabs (ver.2)

Artists:  A B C D E F G H I J K L M N O P Q R S T U V W X Y Z # 

The Things Ive Seen Tabs (ver.2)

Mark Tremonti Tabs
 Rating:
4/5 (4 votes)
The Things Ive Seen lessons Tabs too difficult? Try these video lessons and learn fast
                Tuning: D Standard (D G C F A D)
this may not be 100% correct but after listening to it and watching him play it live im
pretty sure its in this tuning and this tab is close. i did a cover of this song under
in the verse which i didnt tab. figured you could probably work them out as they arent
hard to pick up.

Intro and Verse:

D|--------------------------0---------------------------0-------------|
A|---------------------0---------------------------12-----------------|
F|----------------9-------------------------0-------------------------|
C|------------9------------------------12-----------------------------|
G|-------7------------------------10----------------------------------|
D|--------------------------------------------------------------------|

D|---------------------------0---------------------0-----------------------|
A|----------------------0---------------------0----------------------------|
F|-----------------11--------------------9---------------------------------|
C|------------12---------------------10------------------------------------|
G|--------12--------------------10-----------------------------------------|
D|--10-----------------------8--------------------0-------2b3--0-----------|

D|-------------------------------------0-------------------0---------|
A|---------------------------------0-------------------8-------------|
F|--------------------------9---------------------9------------------|
C|----------------------9----------------------9---------------------|
G|------------------7-----------------------7------------------------|
D|-------------------------------------------------------------------|

Chorus:
D|-----------------------0--------------------------------------------|
A|------------------0-------------------------------------------------|
F|-------------5--------------------------4---------------------------|
C|---------5-------------------------5---------------------2----------|
G|-----3------------------------5-----------------------2-------------|
D|-------------------------3-----------------------0------------------|

D|---------------------------0----------------------------------------|
A|---------------------0----------------------------------------------|
F|----------------4-----------------------------------4---------------|
C|------------4-----------------------------------5-------------------|
G|------2------------------------------------5------------------------|
D|-------------------------------0---2----3---------------------------|

D|-----------------------------0-------------------0------------0-----|
A|------------------------0--------------------0------------8---------|
F|--------------------7---------------------9----------9--------------|
C|---------------7--------------------9--------------9----------------|
G|----------5--------------------7----------------7-------------------|
D|--------------------------------------------------------------------|

Brekdown after second chorus and ending

D|--------------------------------------------------------------------|
A|--------------------------------------------------------------------|
F|---------------------------------------------------------3----------|
C|-------------0-------------2----0-----------------------------------|
G|-------------------0-------------------------3----------------------|
D|-------3------------------------------1-----------1-----------------|

D|-------0------------------------------------------0--------------------|
A|----------0----------------------------------0-------------------------|
F|----------------1-------------------1h2h1------------------------------|
C|------------------2---------------2------------------------------------|
G|----------------------2--------2---------------------------------------|
D|-------------------------0---------------------------------------------|
            
Submit corrections

comments powered by Disqus
↑ Back to top | Mark Tremonti Tabs for The Things Ive Seen. Lyrics for acoustic guitar and electric guitar. Tablatures and chords are parodies/interpretations of the original songs. You may use it for private study, scholarship, research or language learning purposes only