>
 >
Decay

Decay Guitar Tabs

Mark Tremonti - Decay chords, tabs, tablatures, lyrics

Guitar lessons | Add/correct | Request | Top 50 tabs Artists:  A B C D E F G H I J K L M N O P Q R S T U V W X Y Z 0-9

Decay Guitar Tabs – Mark Tremonti

CD, Sheet music, Poster

Do you like Decay? Share with your friends now
Tabs
---------------------------------------------------------------------------
                           DECAY - Tremonti
---------------------------------------------------------------------------

Tuning: Drop B (Low to high: B - Gb - B - E - Ab - Db)

Rate and comment please :)
Sorry for my bad english.



Intro (Main Riff)

Db|-----|-------------------------------|
Ab|-----|-------------------------------|
E |-----|-------------------------------|
B |-----|-6p0--0-1/3\1p0-1p0--1-0-------| Second bar x4
Gb|-0-0-|-6p0--0-1/3\1p0-1p0------0-----|
B |-0-0-|-6p0--0-1/3\1p0-1p0--------1-0-|
    * *


Verse

Db|-------------------------|-------------------------|
Ab|-------------------------|-------------------------|
E |-5---5--5-5-5-5--5-5-5-5-|-3---3--3-3-3-3--3-3-----|
B |-5---5--5-5-5-5--5-5-5-5-|-3---3--3-3-3-3--3-3-----|
Gb|-3---5--3-3-3-3--3-3-3-3-|-1---1--1-1-1-1--1-1-0-0-|
B |-------------------------|---------------------0-0-|
                                                  * *

Db|-------------------------------|-------------------------------|
Ab|-------------------------------|-------------------------------|
E |-------------------------------|-------------------------------|
B |-6p0--0-1/3\1p0-1p0--1-0-------|-6p0--0-1/3\1p0-1p0--1-0-------|
Gb|-6p0--0-1/3\1p0-1p0------0-----|-6p0--0-1/3\1p0-1p0------0-----|
B |-6p0--0-1/3\1p0-1p0--------1-0-|-6p0--0-1/3\1p0-1p0--------1-0-|

last 4 beats x2

Db|-------------------------|-------------------------|
Ab|-------------------------|-------------------------|
E |-5---5--5-5-5-5--5-5-5-5-|-3---3--3-3-3-3--3-3-----|
B |-5---5--5-5-5-5--5-5-5-5-|-3---3--3-3-3-3--3-3-----|
Gb|-3---5--3-3-3-3--3-3-3-3-|-1---1--1-1-1-1--1-1-0-0-|
B |-------------------------|---------------------0-0-|
                                                  * *


Pre- Chorus

Db|-----------------------------|-------------------------|----------------|
Ab|-----------------------------|-------------------------|----------------|
E |-----------6-6--6-6--6-6-6-6-|-5---5--5-5-5-5--5-5-5-5-|-3--------------|
B |-0--0-0--0-7-7--7-7--7-7-7-7-|-5---5--5-5-5-5--5-5-5-5-|-3------12\\\\\-|
Gb|-0--0-0--0-4-4--4-4--4-4-4-4-|-3---5--3-3-3-3--3-3-3-3-|-1------12\\\\\-|
B |-0--0-0--0-------------------|-------------------------|--------12\\\\\-|



Chorus x2

Db|---------------------|-----------------------|-----------------------|
Ab|---------------------|-----------------------|-----------------------|
E |---------------------|-5---5--5-5-5-5--5-5-5-|-3---3--3-3-3-3--3-3-3-|
B |-0---0--0-0-0--0-0-0-|-5---5--5-5-5-5--5-5-5-|-3---3--3-3-3-3--3-3-3-|
Gb|-0---0--0-0-0--0-0-0-|-3---3--3-3-3-3--3-3-3-|-1---1--1-1-1-1--1-1-1-|
B |-0---0--0-0-0--0-0-0-|-----------------------|-----------------------|

Db|----------------------|
Ab|----------------------|
E |----------------------|
B |-5---5--5-----3---1---|
Gb|-5---5--5-0-0-3---1---|
B |-5---5--5-0-0-3---1---|
             * *


Main Riff: x4


Verse: like before


Pre- Chorus: Like before


Chorus: first 3 bars like before but then it goes:

Db|---------------------|
Ab|---------------------|
E |---------------------|
B |-5---5--5-5-5--5-5-5-| x2
Gb|-5---5--5-5-5--5-5-5-|
B |-5---5--5-5-5--5-5-5-|



Bridge
(Mark uses a strange effekt for the bridge - I think, it's a really slow flanger or he 
openes the Wah slowly)

Db|---------------------------------|---------------------------------|
Ab|---------------------------------|---------------------------------|
E |---------------------------------|---------------------------------|
B |---------------------------------|---------------------------------| x3
Gb|---------------------------------|---------------------------------|
B |-0-0-0-0-0-0-0-1-5-4-0-0-0-0-0-3-|-0-2-0-0-0-0-0-0-0-1-4-5-4-1-0-1-|
        *   * *         * * *   *     *   * * *   * *

Db|---------------------------------|----------------------|
Ab|---------------------------------|----------------------|
E |---------------------------------|----------------------|
B |---------------------------------|----------------------|
Gb|---------------------------------|----------------------|
B |-0-0-0-0-0-0-0-1-5-4-0-0-0-0-0-3-|-0-2-0-0-0-0-0-0-5b---|
        *   * *         * * *   *     *   * * *   * *


"Fading Like Decay"

Db|-----------------------|----------------------|
Ab|-----------------------|----------------------|
E |-----------------------|----------------------|
B |-0----0--/5--4---0--/4-|-3---0----1-0---------|
Gb|-0----0--/5--4---0--/4-|-3---0----1-0---------|
B |-0----0--/5--4---0--/4-|-3---0----1-0---000---|
                                           ***

Db|-----------------------|---------------------------|
Ab|-----------------------|---------------------------|
E |-----------------------|---------------------------|
B |-0----0--/5--4---0--/4-|-3---0---1-0-----0---------|
Gb|-0----0--/5--4---0--/4-|-3---0-------0-----3-------|
B |-0----0--/5--4---0--/4-|-3---0---------1-----3-2-1-|


Db|-----------------------|----------------------|
Ab|-----------------------|----------------------|
E |-----------------------|----------------------|
B |-0----0--/5--4---0--/4-|-3---0----1-0---------|
Gb|-0----0--/5--4---0--/4-|-3---0----1-0---------|
B |-0----0--/5--4---0--/4-|-3---0----1-0---000---|
                                           ***

Db|-----------------------|-------------------------------------------|
Ab|-----------------------|-------------------------------------------|
E |-----------------------|-------------------------------------------|
B |-0----0--/5--4---0--/4-|-3---0---1-0-----0-------1-0-----0---------|
Gb|-0----0--/5--4---0--/4-|-3---0-------0-----3---------0-----3-------|
B |-0----0--/5--4---0--/4-|-3---0---------1-----3-2-------1-----3-2-1-|



Chorus: like second time



Outro: last 4 bars of "Fading Like Decay"



************************************

| /   slide up
| \   slide down
| h   hammer-on
| p   pull-off
| b   Bend

************************************





Comments


Popular Mark Tremonti tabs & chords
All I Was Tabs
All I Was Intro Tabs
Giving Up Tabs
Proof Tabs
So Youre Afraid Tabs
So Youre Afraid 2 Tabs
The Things Ive Seen 1 Tabs
Wish You Well Tabs
You Waste Your Time Tabs
You Waste Your Time 1 Tabs


Song lyrics



↑ Back to top | Tablatures and chords are parodies/interpretations of the original songs. You may use it for private study, scholarship, research or language learning purposes only
© 2014 AZChords.com Contact us | Privacy policy | DMCA | Add/correct tabs | Request tabs | Top 50 tabs