>
 >
Brains

Brains Guitar Tabs

Mark Tremonti - Brains chords, tabs, tablatures, lyrics

Guitar lessons | Add/correct | Request | Top 50 tabs Artists:  A B C D E F G H I J K L M N O P Q R S T U V W X Y Z 0-9

Brains Guitar Tabs – Mark Tremonti

CD, Sheet music, Poster

Do you like Brains? Share with your friends now
Tabs
-----------------------------------------------------------------------------
                               BRAINS - Tremonti
-----------------------------------------------------------------------------

Awesome song from Mark Tremonti's solo album, 'All I Was'

The solo is mostly correct except from some parts where I improvise

Tuning: Open B5 or B F# B F# B B

Intro: (let ring throughout)

|-----------------------------------0---------------------------------------|
|-----------------------------------0------------------Second time round,---|
|------0------------------------0---------------(x2)----start with 3 0's----|
|-------------------0-------------------0-----------------------------------|
|---11-----------11----------11-----------11--------------------------------|
|-0----------000---------000------------------------------------------------|

Pre-Verse:

|---------------------------------------------------------------------------|
|---------------------------------------------------------------------------|
|---------------------------------------------------------------------------|
|----------------------------1---------------------1-1----------------------|
|--------------------------------------------------1-1----------------------|
|--1100-1100-1100-1100-0-1-3---1100-1100-1100-1100-1-1----------------------|
   **** **** **** **** * * *   **** **** **** ****
|---------------------------------------------------------------------------|
|---------------------------------------------------------------------------|
|---------------------------------------------------------------------------|
|----------------------------1----------------------------------------------|
|---------------------------------------------------------------------------|
|--1100-1100-1100-1100-0-1-3---1100-1100-1100-000000-12\--------------------|
   **** **** **** **** * * *   **** **** **** ******
|---------------------------------------------------------------------------|
|---------------------------------------------------------------------------|
|---------------------------------------------------------------------------|
|----------------------------1---------------------1-1----------------------|
|--------------------------------------------------1-1----------------------|
|--1100-1100-1100-1100-0-1-3---1100-1100-1100-1100-1-1----------------------|
   **** **** **** **** * * *   **** **** **** ****
|---------------------------------------------------------------------------|
|---------------------------------------------------------------------------|
|---------------------------------------------------------------------------|
|----------------------------1---------------------1------------------------|
|--------------------------------------------------1------------------------|
|--1100-1100-1100-1100-0-1-3---1100-1100-1100-1100-1------------------------|
   **** **** **** **** * * *   **** **** **** ****

|----0----0-0-0-0--0--0--0-------------------------------------------------|
|----0----0-0-0-0--0--0--0-------------------------------------------------|
|----12--12121212-12-11-11-------------------------------------------------|
|-0--0----0-0-0-0--0--0--0---00-8-7----(x4)--------------------------------|
|-0--12--12121212-12-11-11---00-8-7----------------------------------------|
|-0--0----0-0-0-0--0--0--0---00-8-7----------------------------------------|
                             **   

Verse 1:

|----0-00---------0-00----------0-00-0--0-0-0-------------------------------|
|----0-00---------0-00----------0-00-0--0-0-0-------------------------------|
|----5-55---------5-55----------x-xx-x--x-x-x-------------------------------|
|-0--0-00-1--0--0-0-00-0-3-5-7--7-77-7--6-6-6---------(x2)------------------|
|-0--5-55-1--0--0-5-55-0-3-5-7--7-77-7--6-6-6-------------------------------|
|-0--0-00-1--0--0-0-00-0-3-5-7--7-77-7--6-6-6-003-02------------------------|
                                              **  *
Pre-Chorus:

|---------------------------------------------------------------------------|
|---------------------------------------------------------------------------|
|---------------------------------------------------------------------------|
|----------------------------1---------------------1-1----------------------|
|--------------------------------------------------1-1----------------------|
|--1100-1100-1100-1100-0-1-3---1100-1100-1100-1100-1-1----------------------|
   **** **** **** **** * * *   **** **** **** ****
|---------------------------------------------------------------------------|
|---------------------------------------------------------------------------|
|---------------------------------------------------------------------------|
|----------------------------1---------------------1/-----------------------|
|--------------------------------------------------1/-----------------------|
|--1100-1100-1100-1100-0-1-3---1100-1100-1100-1100-1/-----------------------|
   **** **** **** **** * * *   **** **** **** ****

Chorus:
                                              
|----0--0000-0-----0--0000-0------0-0-0-0--0------0-------------------------|
|----0--0000-0-----0--0000-0------0-0-0-0--0------0-------------------------|
|----0--0000-0-----x--xxxx-x------x-x-x-x--x------x-------------------------|
|-0--0--0000-0--3--3--3333-3--10--10101010-10--8--8--------(x2)-------------|
|-0--0--0000-0--3--3--3333-3--10--10101010-10--8--8-------------------------|
|-0--0--0000-0--3--3--3333-3--10--10101010-10--8--8-005-03------------------|
                                                    **  *
Pre-Verse:

|----0----0-0-0-0--0--0--0--------------------------------------------------|
|----0----0-0-0-0--0--0--0--------------------------------------------------|
|----12--12121212-12-11-11--------------------------------------------------|
|-0--0----0-0-0-0--0--0--0---00-8-7----(x2)---------------------------------|
|-0--12--12121212-12-11-11---00-8-7-----------------------------------------|
|-0--0----0-0-0-0--0--0--0---00-8-7-----------------------------------------|
                             **   

Verse 2:

|----0-00---------0-00----------0-00-0--0-0-0-------------------------------|
|----0-00---------0-00----------0-00-0--0-0-0-------------------------------|
|----5-55---------5-55----------x-xx-x--x-x-x-------------------------------|
|-0--0-00-1--0--0-0-00-0-3-5-7--7-77-7--6-6-6---------(x2)------------------|
|-0--5-55-1--0--0-5-55-0-3-5-7--7-77-7--6-6-6------------------------------|
|-0--0-00-1--0--0-0-00-0-3-5-7--7-77-7--6-6-6-003-02------------------------|
                                              **  *
Pre-Chorus:

|---------------------------------------------------------------------------|
|---------------------------------------------------------------------------|
|---------------------------------------------------------------------------|
|----------------------------1---------------------1-1----------------------|
|--------------------------------------------------1-1----------------------|
|--1100-1100-1100-1100-0-1-3---1100-1100-1100-1100-1-1----------------------|
   **** **** **** **** * * *   **** **** **** ****
|---------------------------------------------------------------------------|
|---------------------------------------------------------------------------|
|---------------------------------------------------------------------------|
|----------------------------1---------------------1/-----------------------|
|--------------------------------------------------1/-----------------------|
|--1100-1100-1100-1100-0-1-3---1100-1100-1100-1100-1/-----------------------|
   **** **** **** **** * * *   **** **** **** ****

Chorus:
                                              
|----0--0000-0-----0--0000-0------0-0-0-0--0------0-------------------------|
|----0--0000-0-----0--0000-0------0-0-0-0--0------0-------------------------|
|----0--0000-0-----x--xxxx-x------x-x-x-x--x------x-------------------------|
|-0--0--0000-0--3--3--3333-3--10--10101010-10--8--8--------(x2)-------------|
|-0--0--0000-0--3--3--3333-3--10--10101010-10--8--8-------------------------|
|-0--0--0000-0--3--3--3333-3--10--10101010-10--8--8-005-03------------------|
                                                    **  *
Bridge:

|----0--0000-0-----0--0000-0------0-0-0-0--0------0-------------------------|
|----0--0000-0-----0--0000-0------0-0-0-0--0------0-------------------------|
|----0--0000-0-----x--xxxx-x------x-x-x-x--x------x-------------------------|
|-0--0--0000-0--3--3--3333-3--10--10101010-10--8--8-------------------------|
|-0--0--0000-0--3--3--3333-3--10--10101010-10--8--8-------------------------|
|-0--0--0000-0--3--3--3333-3--10--10101010-10--8--8-------------------------|
                                               
|-0-0-0000-0--0-0-0000-0--0-0-0000-0--0-0-0000-0----------------------------|
|-0-0-0000-0--0-0-0000-0--0-0-0000-0--0-0-0000-0----------------------------|
|-x-x-xxxx-x--x-x-xxxx-x--x-x-xxxx-x--0-0-0000-0----------------------------|
|-8-8-8888-8--5-5-5555-5--3-3-3333-3--0-0-0000-0--(x2)----------------------|
|-8-8-8888-8--5-5-5555-5--3-3-3333-3--0-0-0000-0----------------------------|
|-8-8-8888-8--5-5-5555-5--3-3-3333-3--0-0-0000-0----------------------------|

|-0-0-0000-0--0-0-0000-0--0-0-0000-0--0-0-----------------------------------|
|-0-0-0000-0--0-0-0000-0--0-0-0000-0--0-0-----------------------------------|
|-x-x-xxxx-x--x-x-xxxx-x--x-x-xxxx-x--0-0-----------------------------------|
|-8-8-8888-8--5-5-5555-5--5-5-5555-5--0-0-----------------------------------|
|-8-8-8888-8--5-5-5555-5--5-5-5555-5--0-0-----------------------------------|
|-8-8-8888-8--5-5-5555-5--5-5-5555-5--0-0-----------------------------------|

Chorus:

|----------0--0000-0------0-0-0-0--0------0---------------------------------|
|----------0--0000-0------0-0-0-0--0------0---------------------------------|
|----------x--xxxx-x------x-x-x-x--x------x---------------------------------|
|-------3--3--3333-3--10--10101010-10--8--8---------------------------------|
|-------3--3--3333-3--10--10101010-10--8--8---------------------------------|
|-12\0--3--3--3333-3--10--10101010-10--8--8-005-03--------------------------|
                                            **  *
|----0--0000-0-----0--0000-0------0-0-0-0--0------0-------------------------|
|----0--0000-0-----0--0000-0------0-0-0-0--0------0-------------------------|
|----0--0000-0-----x--xxxx-x------x-x-x-x--x------x-------------------------|
|-0--0--0000-0--3--3--3333-3--10--10101010-10--8--8-------------------------|
|-0--0--0000-0--3--3--3333-3--10--10101010-10--8--8-------------------------|
|-0--0--0000-0--3--3--3333-3--10--10101010-10--8--8-005-03------------------|
                                                    **  *

Solo:

(with wah)

|---------------------------------------------------------------------------|
|---------------------------------------------------------------------------|
|-5-5-55/7-8-10/12\10\8/10-10-10--8-7/8-8\7\5-------------------13-12-10/20-|
|-x-x-xx-x-x-x--x--x--x-x--x--x---x-x-x-x-x-x--7/12-12-14151415-------------|
|-5-5-55/7-8-10/12\10\8/10-10-10--8-7/8-8\7\5-------------------------------|
|---------------------------------------------------------------------------|

|---------------------------------------------------------------------------|
|-22--------20--------19--------17-------14---------------------------------|
|----20-19-----19-17-----17-15-----15-13----101210131012101310121013--------|
|---------------------------------------------------------------------------|
|---------------------------------------------------------------------------|
|---------------------------------------------------------------------------|

|---------------------------------------------------------------------------|
|---------10131510101315101012101310121013----------------------------------|
|-10121013--------------------------------1012101310121013------------------|
|---------------------------------------------------------12ph--------------|
|---------------------------------------------------------------------------|
|---------------------------------------------------------------------------|

|---------------|
|----5+---------|
|--5+-5+-5+~~~~-|
|---5+-5+-------|
|-------5+------|
|---------------|

Outro:

|---------------------------------------------------------------------------|
|---------------------------------------------------------------------------|
|---------------------------------------------------------------------------|
|----------------------------1---------------------1-1----------------------|
|--------------------------------------------------1-1----------------------|
|--1100-1100-1100-1100-0-1-3---1100-1100-1100-1100-1-1----------------------|
   **** **** **** **** * * *   **** **** **** ****
|---------------------------------------------------------------------------|
|---------------------------------------------------------------------------|
|---------------------------------------------------------------------------|
|----------------------------1--------------1h0-------------0---------------|
|-----------------------------------------------3h0---------0---------------|
|--1100-1100-1100-1100-0-1-3---1100-1100-0----------3h0-1h3-0---------------|
   **** **** **** **** * * *   **** **** *


************************************

| /   slide up
| \   slide down
| h   hammer-on
| p   pull-off
| ~   vibrato
| +   harmonic
| x   Mute note
| b   Bend
| pb  Pre-bend
| br  Bend release
| pbr Pre-bend release
| brb Bend release bend
| ph  Pinch harmonic
| *   Palm mute

************************************





Comments


Popular Mark Tremonti tabs & chords
Brains Intro Tabs
Decay Tabs
Decay Intro Tabs
Guitar Asylum Riff Intro Tabs
London Bridge Tabs
New Way Out Tabs
So Youre Afraid 2 Tabs
The Things Ive Seen Tabs
Wish You Well Tabs
You Waste Your Time 1 Tabs


Song lyrics



↑ Back to top | Tablatures and chords are parodies/interpretations of the original songs. You may use it for private study, scholarship, research or language learning purposes only
© 2014 AZChords.com Contact us | Privacy policy | DMCA | Add/correct tabs | Request tabs | Top 50 tabs