» » »

Beautiful Ppl Tabs (ver.1)

Artists:  A B C D E F G H I J K L M N O P Q R S T U V W X Y Z # 

Beautiful Ppl Tabs (ver.1)

Marilyn Manson
Rating:
0/5 (0 votes)

Hard to play? Try these video lessons and learn fast.
                


   This is how I play the song. You can mess wih it a little to make
it                          sound right to you  


Notation:
h=hammer on
p=pull off
x=mute
P.M.______=palm mute
(palm mut symbol will be above tab lines)
\=slide up the neck
/=slide down the neck towards the headstock

intro:
  *Drums and studio effects
|--------------------------------------|
|--------------------------------------|                               
|--------------------------------------|                               
|--------------------------------------|                               
|--------------------------------------|                               
|--------------------------------------| 



P.M.__________________________________
|-----------------------------------------|
|-----------------------------------------|
|-----------------------------------------|
|--x-x-x-x---x-x-x-x---x-x-x-x---x-x-x-x--|
|--x-x-x-x---x-x-x-x---x-x-x-x---x-x-x-x--|
|--x-x-x-x---x-x-x-x---x-x-x-x---x-x-x-x--|


|-----------------------------------------|
|-----------------------------------------|
|-----------------------------------------|
|-----------------------------------------|
|--0h3p0----0h3p0----0h3p0----0h3p0-------|
|--0h3p0----0h3p0----0h3p0----0h3p0-------|


* play 4 times*
|-----------------------------------------|
|-----------------------------------------|
|-----------------------------------------|
|-----------------------------------------|
|--0h5p0h5p0--0h5p0h5p0--0h3p0------------|
|--0h5p0h5p0--0h5p0h5p0--0h3p0------------|


  pre-chorus:  theres no time to dscriminate...
|---------------------------------------------|
|---------------------------------------------|
|---------------------------------------------|
|--x----5-4----4-3---3-2----2-1----1-0----2\5-|
|---------------------------------------------|
|---------------------------------------------|
                                                                                                                         
chorus:     *play 4 times*                                   
|-----------------------------------------|
|-----------------------------------------|
|-----------------------------------------|
|-----------------------------------------|
|--0h5p0h5p0--0h5p0h5p0--0h3p0------------|
|--0h5p0h5p0--0h5p0h5p0--0h3p0------------|


2nd verse:
|-----------------------------------------|
|-----------------------------------------|
|-----------------------------------------|
|---x-x-x-3p0-----------------------------|
|---x-x-x-3p0-----------------------------|
|---x-x-x-3p0-----------------------------| 


interlude: The Beautiful people  the beautiful people aah              
|------------------------------------------------------------------|
|------------------------------------------------------------------|
|------------------------------------------------------------------|
|--------------------------------------------------------x-x-x-3p0-|
|--------------------------------------------------------x-x-x-3p0-|
|--------------------------------------------------------x-x-x-3p0-|


           well thats it. listen to the  song you'll figure out
       where everything goes. e-mail me ttell me what you think
            
Hard to play? Try these video lessons and learn fast. | Correct




comments powered by Disqus
↑ Back to top | Tablatures and chords are parodies/interpretations of the original songs. You may use it for private study, scholarship, research or language learning purposes only