» » »

Marilyn Manson, Apple Of Sodom Tabs (ver.1)

Artists:  A B C D E F G H I J K L M N O P Q R S T U V W X Y Z # 

Apple Of Sodom Tabs (ver.1)

Marilyn Manson Tabs
 Rating:
4/5 (4 votes)
Apple Of Sodom lessons Tabs too difficult? Try these video lessons and learn fast
1
                Apple Of Sodom by Marilyn Manson
Dif.: 5

Verse (Gtr. 1) (w/ chorus) (After “I pray it isn’t true…”)
D|-7-7-7-7--8-7-4-7-7--7-7-7-7-10-10-8-7-7-|
A|-0-0-0-0--0-0-0-0-0--0-0-0-0--0--0-0-0-0-|

Verse P2 (Synth. arr. for Gtr. 2)
E|-5----3----6----5----|
B|-3-------------------|
G|-2-------------------|
D|-0-------------------|

Bridge (w/ chorus)
E|------5-------5-|-%-|-%-|-------4-|-------4-|-%-|-%-|---|
B|-4-4---4-4-4----|-%-|-%-|-4-3-3---|-3-3-3---|-%-|-%-|-3-|

Outro (Gtr. 3 w/ chorus + dist.)
E|--5\4\3/5^-------|

Song Structure: -
Effects sh*t I Don’t Know
Drums cr*ppola
Verse Drums
Verse (Gtr. 1)
Verse (Gtr. 1)/Verse P2 (Gtr. 2)
Bridge (“Take this from me….”)
Verse (Gtr. 1)
Verse (Gtr. 1)/Verse P2 (Gtr. 2) (Just before the 4th “I’m dying I hope…”)
Verse (Gtr. 1)/Verse P2 (Gtr. 2)/Outro (Gtr. 3)

Alright nice scary f**ked up song. Apple of an*l sex. Ah ha ha. 

use standard tuning.
The live version uses a flanger with low intensity and low volume distortion. 
Studio version uses flanger with high intensity and clean channel.

------------------------------------------------------------------------------
------------------------------------------------------------------------------
------------------------------------------------------------------------------
-7-7-7-7--8--7-7-7-7--7-7-7-7--10--8-8-8-8------------------------------------
-0-0-0-0--0--0-0-0-0--0-0-0-0--0---0-0-0-0------------------------------------
------------------------------------------------------------------------------
 intro/verse                                                                  

------------------------------------------------------------------------------
-----9-------9-------9-------9-------8-------8-------8-------8----------------
-7-7---7-7-7---7-7-7---7-7-7---76-6---6-6-6---6-6-6---6-6-6---6/-------------
------------------------------------------------------------------------------
------------------------------------------------------------------------------
------------------------------------------------------------------------------
 solo repeat 2x then back to verse                                            

-5p4p3h4b6--5p4p3h5b6---------------------------------------------------------
-5-----4-6--5-----5-6---------------------------------------------------------
------------------------------------------------------------------------------
------------------------------------------------------------------------------
------------------------------------------------------------------------------
------------------------------------------------------------------------------
 outro(for studio)                                                            

------------------------------------------------------------------------------
------------------------------------------------------------------------------
------------------------------------------------------------------------------
--7-7-7-7--8--7-7-7-7--7-7-7-7--10--7-7-7-7-----------------------------------
------------------------------------------------------------------------------
------------------------------------------------------------------------------
 outro(live) pick notes lightly, played over keyboard                         
=====

          Apple of Sodom


          Standard tuning.

          * = bend this kind of slow

          riff 1
          (verse riff: low volume with flanger. I'm pretty sure this is
          right but theres some synth going along with it that makes it
          kind of hard to hear the whole riff)

          e||-----------------------------------------------------||
          B||-----------------------------------------------------||
          G||-----------------------------------------------------||
          D||-----------------------------------------------------||
          A||--7--7--7--7--7--7-7---7-7--7--7--7--7--7--7-7----7--||
          E||--5--5--5--5--5--5-5---5-5--5--5--5--5--5--5-5----5--||

          riff 2
          (bridge riff: I dont know how marilyn manson make these kinds of
          sounds from a guitar because it kind of sounds like a toy guitar
          sort of)

          e||-----------------------------------------------------------------||
          B||-----------------------------------------------------------------||
          G||-----------------------------------------------------------------||
          D||------7-------7-------7-------7-------6-------6-------6-------6--||
          A||--6-6---6-6-6---6---6---6-6-6---6-5-5---5-5-5---5---5-----5-5----||
          E||-----------------------------------------------------------------||

          riff 3
          (ending riff: again this sounds like a toy guitar with a wierd
          effect. The same sounding effect from kinderfeld and wormboy
          where marilyn sings "When I got my wings and I never even knew
          it".)

          e||--5p4p3h4-^6-----5p4p3h5-^6--||
          B||--5----(4)^6-----5----(5)^6--||
          G||----------*------------------||
          D||-----------------------------||
          A||-----------------------------||
          E||-----------------------------||
            
Submit corrections

comments powered by Disqus
↑ Back to top | Marilyn Manson Tabs for Apple Of Sodom. Lyrics for acoustic guitar and electric guitar. 1 Tablatures and chords are parodies/interpretations of the original songs. You may use it for private study, scholarship, research or language learning purposes only