>
 >
Every Place Is A House

Every Place Is A House Guitar Tabs

Maps And Atlases - Every Place Is A House chords, tabs, tablatures, lyrics

Guitar lessons | Add/correct | Request | Top 50 tabs Artists:  A B C D E F G H I J K L M N O P Q R S T U V W X Y Z 0-9

Every Place Is A House Guitar Tabs – Maps And Atlases

CD, Sheet music, Poster

Do you like Every Place Is A House? Share with your friends now
Bass TabsTabs
(For staffs with “hit fingers” next to it)In between notes, hit your left 
hand's fingers on the fret board a couple times.  If this seems 
confusing, I suggest watching a video of the band playing the song on 
 
* = Left Hand Tap

   4/4
    Gtr I
     T        T        T        T         T        T
     |--3--|  |--3--|  |--3--|  |--3--|   |--3--|
     S  S  S  S  S  S  S  S  S  S  S  S   S  S  S  Q      E     8x
||--------------------------------------------------------------||
||o--------------------5p=1h=3---------------------5p=====1----o||
||------------5p=0h=2-----------5p=0h=2-------------------------||
||---5p=0h=3------------------------------5p=0h=3---------------||
||o------------------------------------------------------------o||
||--------------------------------------------------------------||
|
|   Gtr II
|    T        T        T        T         T        T
|    |--3--|  |--3--|  |--3--|  |--3--|   |--3--|
|    S  S  S  S  S  S  S  S  S  S  S  S   S  S  S  Q  E         8x
||--------------------------------------------------------------||
||o-------------------13p11p10---------------------------------o||
||-----------14p12p10----------14p12p10-----------14p12---------||
||--14p12p10-----------------------------14p12p10---------------||
||o------------------------------------------------------------o||
||--------------------------------------------------------------||


     T                 T                           T
     E        E        E        Q                  E  Q      10x
||------------------------------------------------------------||
||o--5p=======1----------------------------------------------o||
||---------------------5p=======2-----------------------------|| Hold an F
||---5p=======3------------------------------------5p=3-------|| chord while 
||o--------------------5p=======3----------------------------o|| you tap
||-------------------------------------------------5p=1-------||
|
|    T        T        T        T         T        T
|    |--3--|  |--3--|  |--3--|  |--3--|   |--3--|
|    S  S  S  S  S  S  S  S  S  S  S  S   S  S  S  Q      E  10x
||------------------------------------------------------------||
||o-------------------13p11p10-------------------------------o||
||-----------14p12p10----------14p12p10-----------14p====12---||
||--14p12p10-----------------------------14p12p10-------------||
||o----------------------------------------------------------o||
||------------------------------------------------------------||


    T      T       T        T       T
    |-3--| |-3--|
    S S  S S  S S  E   E    E   E   E   E
||-----------------5p==1-------------------|
||o-------------------------5p==1---5p==1--|
||---------5p=0h2--------------------------|
||--5p0h=3---------------------------------|
||o----------------------------------------|
||-----------------------------------------|
|
|                      T    T   T   T   T
|   |-3--| |-3--|      
|   S S  S S  S S  E   E    E   E   E   E
||--------------------------------------------|
||o---------------10--------------------------|
||---------9h10p2----------12*--14*------14*--|
||--7h8h10------------12*-----------1-4*------|
||o-------------------------------------------|
||--------------------------------------------|

  T      T       T        T       T
  |-3--| |-3--|
  S S  S S  S S  E   E    E   E   E   E    4x
|----------------5p==1---------------------||
|-------------------------5p==1---5p==1---o||
|--------5p=0h2----------------------------||
|-5p0h=3-----------------------------------||
|-----------------------------------------o||
|------------------------------------------||
|
|                    T    T   T   T   T
| |-3--| |-3--|
| S S  S S  S S  E   E    E   E   E   E    4x
|--------------------------------------------||
|---------------10--------------------------o||
|--------9h10p2----------12*------12*--------||
|-7h8h10------------12*-------12*-----12*----||
|-------------------------------------------o||
|--------------------------------------------||
   
     T    T    T    T     T    T    T
     e    e    e    e     e    e    q
||-----------------------------------------|
||o-----------10-------------------10------|
||-------10--------10---------10-----------| “hit fingers”
||--10-------------------10----------------|
||o----------------------------------------|
||-----------------------------------------|
|
|    T    T    T    T     T    T    T        
|    e    e    e    e     e    e    q
||-----------------------------------------|
||o----------------------------------------|
||--12---12---12---12----12---12-----------| “hit fingers”
||-----------------------------------------|
||o--------------------------------12------|
||-----------------------------------------|


   T    T    T    T     T    T    T
   e    e    e    e     e    e    q
|---------------------------------------||
|-----------10-------------------10----o||
|------10--------10---------10----------|| “hit fingers”
|-10-------------------10---------------||
|--------------------------------------o||
|---------------------------------------||
|
|  T    T    T    T     T    T    T
|  e    e    e    e     e    e    q
|---------------------------------------||
|--------------------------------------o||
|---------------------------------------||
|-12---12---12---12----12---12----------|| “hit fingers”
|--------------------------------12----o||
|---------------------------------------||


     T   T  T   T  T   T  T   T   T   T  T   T  T
     |-3-|  |-3-|  |-3-|  |-3-|   |-3-|  |-3-|
     S S S  S S S  S S S  S S S   S S S  S S S  q
||-------------------------------------------------|
||o-10-1---10-1---10-1---10-1----10-1---10-1---10--|
||-------------------------------------------------|
||-------3*-----3*-----3*-----3*------3*-----3*----|
||o------------------------------------------------|
||-------------------------------------------------|
|
|    T      T      T      T       T      T      T
|    e      e      e      e       e      e      q
||---------------------------------------------------|
||o--------------------------------------------------|
||--12-----12-----12-----12------12-----12-----------|
||---------------------------------------------------| “hit fingers”
||o--------------------------------------------12----|
||---------------------------------------------------|


  T   T  T   T  T   T  T   T   T   T  T   T  T   
  |-3-|  |-3-|  |-3-|  |-3-|   |-3-|  |-3-|
  S S S  S S S  S S S  S S S   S S S  S S S  q    4x
|-------------------------------------------------||
|-10-1---10-1---10-1---10-1----10-1---10-1---10--o||
|-------------------------------------------------||
|-----3*-----3*-----3*-----3*------3*-----3*------||
|------------------------------------------------o||
|-------------------------------------------------||
|
|  T      T      T      T       T      T      T
|  e      e      e      e       e      e      q    4x
|--------------------------------------------------||
|-------------------------------------------------o||
|--------------------------------------------------||
|-12-----12-----12-----12------12-----12-----------|| “hit fingers”
|--------------------------------------------12---o||
|--------------------------------------------------||


  q.   q.   Q      q.    q.   Q       q.    q.   Q     q.    q.   Q
|---------------|-------------8\----|---------------|-------------8\-----|
|------5--------|-------10----8-----|-------5-------|-------10----8------|
|------5----5---|-------10----------|-------5----5--|-------10-----------|
|-5---------5S==|=10----------------|-5----------5S=|=10-----------------|
|---------------|-------------------|---------------|--------------------|
|---------------|-------------------|---------------|--------------------|
|
| q.   H      E    q.    h        E   q.  h      E     q.    h        E
|---------------|-------------------|---------------|--------------------|
|---------------|-------------------|---------------|--------------------|
|-0----9------9p|==0----12-------14p|=0---9------9p=|==0----12-------14p=|
|---------------|-------------------|---------------|--------------------|
|---------------|-------------------|---------------|--------------------|
|---------------|-------------------|---------------|--------------------|


  q.   q.   Q      q.    q.   Q       q.    q.   Q      q.    q.   Q
|---------------|-------------8\----|----------------|-------------8\------|
|------5--------|-------10----8-----|-------5--------|-------10----8-------|
|------5----5---|-------10----------|-------5----5---|-------10------------|
|-5---------5S==|=10----------------|-5----------5S==|=10------------------|
|---------------|-------------------|----------------|---------------------|
|---------------|-------------------|----------------|---------------------|
|
| q.   H      E    q.    h        E   q.    h      E    q.    H        +E
|---------------|-------------------|----------------|---------------------|
|---------------|----------------13-|----------------|---------------------|
|-0----9------9p|==0----12-------14p|=0----10------9p|==0----12-------(12)-|
|---------------|-------------------|----------------|---------------------|
|---------------|-------------------|----------------|---------------------|
|---------------|-------------------|----------------|---------------------|


   |-3--|  |-3--|  |-3--|  |--3--|
   E E  E  E E  E  E E  E  E  E  E
|--------------------5-------------|
|----5-----------------------------|
|--0----0--2-5--0--5----5--0-10--0-|
|----------------------------------|
|----------------------------------|
|----------------------------------|
|
|  T    T  T    T  T    T  T     T
|  |-3--|  |-3--|  |-3--|  |--3--|
|  E E  E  E E  E  E E  E  E  E  E
|-----------------------------------|
|-----------------------------------|
|-12-9----12-9----12-9----12--9-----|
|------10*-----10*-----10*------10*-|
|-----------------------------------|
|-----------------------------------|


    W          q.    q.   Q      q.    q.    Q
|------------|----------------|--------------8\--|
|------------|-------5--------|-------10-----8---|
|-/12--------|-------5----5---|-------10---------|
|------------|-5----------5S==|=10---------------|
|------------|----------------|------------------|
|------------|----------------|------------------|
|
|   T
|   W          q.    h      E    q.    q.    Q
|------------|----------------|------------------|
|------------|----------------|------------------|
|--12--------|-0----10------9p|==0----12----14---|
|------------|----------------|------------------|
|------------|----------------|------------------|
|------------|----------------|------------------|


   |-3--|  |-3--|  |-3--|  |--3--|
   E E  E  E E  E  E E  E  E  E  E     W
|--------------------5-------------|------------|
|----5-----------------------------|------------|
|--0----0--2-5--0--5----5--0-10--0-|-/12--------|
|----------------------------------|------------|
|----------------------------------|------------|
|----------------------------------|------------|
|
|  T   T   T   T   T   T  T     T     T
|  |-3--|  |-3--|  |-3--| |--3--|
|  E E E  E E  E  E E  E  E  E  E     W
|----------------------------------|------------|
|----------------------------------|------------|
|-12-9----12-9----12-9----12-9-----|--12--------|
|-----10*-----10*-----10*------10*-|------------|
|----------------------------------|------------|
|----------------------------------|------------|


  q.    q.   Q      q.    q.   Q
|----------------|-------------8\------|
|-------5--------|-------10----8-------|
|-------5----5---|-------10------------|
|-5----------5S==|=10------------------|
|----------------|---------------------|
|----------------|---------------------|
|
| q.    h      E    q.    H        +E
|----------------|---------------------|
|----------------|---------------------|
|-0----10------9p|==0----12-------(12)-|
|----------------|---------------------|
|----------------|---------------------|
|----------------|---------------------|


     T        T        T        T        T        T
     |--3--|  |--3--|  |--3--|  |--3--|  |--3--|
     S  S  S  S  S  S  S  S  S  S  S  S  S  S  S  Q   E  4x
||-------------------------------------------------------||
||o--------------------5p=1h=3--------------------5p==1-o||
||------------5p=0h=2-----------5p=0h=2------------------||
||---5p=0h=3-----------------------------5p=0h=3---------||
||o-----------------------------------------------------o||
||-------------------------------------------------------||
|
|    T        T        T        T        T        T
|    |--3--|  |--3--|  |--3--|  |--3--|  |--3--|
|    S  S  S  S  S  S  S  S  S  S  S  S  S  S  S  Q   E  4x
||-------------------------------------------------------||
||o-------------------13p11p10--------------------------o||
||-----------14p12p10----------14p12p10----------14p=12--||
||--14p12p10----------------------------14p12p10---------||
||o-----------------------------------------------------o||
||-------------------------------------------------------||


     T                 T                          T
     E        E        E        Q                 E Q     4x
||--------------------------------------------------------||
||o--5p=======1------------------------------------------o|| Hold an F
||---------------------5p=======2-------------------------|| chord while
||---5p=======3-----------------------------------5p3-----|| you tap
||o--------------------5p=======3------------------------o||
||------------------------------------------------5p1-----||
|
|    T        T        T        T        T        T
|    |--3--|  |--3--|  |--3--|  |--3--|  |--3--|
|    S  S  S  S  S  S  S  S  S  S  S  S  S  S  S  Q    E  4x
||--------------------------------------------------------||
||o-------------------13p11p10---------------------------o||
||-----------14p12p10----------14p12p10----------14p==12--||
||--14p12p10----------------------------14p12p10----------||
||o------------------------------------------------------o||
||--------------------------------------------------------||


   T  T  T  T  T  T  T       T  T  T  T  T  T  T
   e  e  e  e  e  e  q       e  e  e  e  e  e  q
|-------------------------|-------------------------|
|-------10----------10----|-------10----------10----|
|----10----10----10-------|----10----10----10-------| “hit fingers”
|-10----------10----------|-10----------10----------|
|-------------------------|-------------------------|
|-------------------------|-------------------------|
|
|  T  T  T  T  T  T  T  T    T  T  T  T  T  T  T  T
|  e  e  e  e  e  e  e  e    e  e  e  e  e  e  e  e
|-------------------------|-------------------------|
|-------------------------|-------------------------|
|-12-------10-12-------10-|-12-------10-12-------10-| “hit fingers”
|----12----------12-------|----12----------12-------|
|-------12----------12----|-------12----------12----|
|-------------------------|-------------------------|


   T  T  T  T  T  T  T       T  T  T  T  T  T  T
   e  e  e  e  e  e  q       e  e  e  e  e  e  q
|-------------------------|-------------------------|
|-------10----------10----|-------10----------10----|
|----10----10----10-------|----10----10----10-------| “hit fingers”
|-10----------10----------|-10----------10----------|
|-------------------------|-------------------------|
|-------------------------|-------------------------|
|
|  T  T  T  T  T  T  T  T    T  T  T  T  T  T  T  T
|  e  e  e  e  e  e  e  e    e  e  e  e  e  e  e  e
|-------------------------|-------------------------|
|-------------------------|-------------------------|
|-12-------10-12-------10-|-12-------10-12-------10-| “hit fingers”
|----12----------12-------|----12----------12-------|
|-------12----------12----|-------12----------12----|
|-------------------------|-------------------------|


   T     T  T     T     T    T     T  T     T
   q     e  q     q     e    q     e  q     e  Q
|-------------------------|-------------------------|
|-13----13-13----13----13-|-13----13-13----13-------|
|-14----14-14----14----14-|-14----14-14----14-------|
|-------------------------|-------------------------|
|-------------------------|-------------------------|
|-------------------------|-------------------------|
|
|  T  T  T  T  T  T  T  T    T  T  T  T  T  T  T  T
|  e  e  e  e  e  e  e  e    e  e  e  e  e  e  e  e
|-------------------------|-------------------------|
|-------------------------|-------------------------|
|-12-------10-12-------10-|-12-------10-12-------10-| “hit fingers”
|----12----------12-------|----12----------12-------|
|-------12----------12----|-------12----------12----|
|-------------------------|-------------------------|


     T     T        T
     E  E  E  Q     E  Q     4x
||---------------------------||
||o--5p=1-------------------o||
||---------5p=2--------------|| Hold an F chord
||---5p=3-----------5p=3-----|| while you tap
||o--------5p=3-------------o||
||------------------5p=1-----||
|
|    T  T  T  T  T  T  T  T
|    e  e  e  e  e  e  e  e  4x
||---------------------------||
||o-------------------------o||
||--12-------10-12-------10--|| “hit fingers”
||-----12----------12--------|| 
||o-------12----------12----o||
||---------------------------||


   7/8
     E q   q    q      q     E h
||------------------|--------------------------|
||o-----------------|--------------------------|
||--12-9------------|--------9-9---------------|
||--------12---10---|-12-----------------------|
||o-----------------|--------------------------|
||------------------|--------------------------|
|
|                                |-3-| |-3-|
|    E q   E q    E    e +e  E e S S S S S S E
||------------------|------------------------5-|
||o----0-----0------|--0-(0)---0-------5-6-8---|
||---2-0---2-0----2-|--0-(0)-2-0-4-5-7---------|
||------------------|--------------------------|
||o-----------------|--------------------------|
||------------------|--------------------------|


   E q   q    q      q     E  h
|-----------------|----------------------------||
|-----------------|---------------------------o||
|-12-9------------|--------9-------------------||
|-------12---10---|-12-------------------------||
|-----------------|----------12---------------o||
|-----------------|----------------------------||
|
|                               |-3-| |-3-|
|  E q   E q    E    e +e  E  e S S S S S S E
|-----------------|-------------------------5--||
|----0-----0------|--0-(0)----0-------5-6-8---o||
|--2-0---2-0----2-|--0-(0)-2--0-4-5-7----------||
|-----------------|----------------------------||
|-----------------|---------------------------o||
|-----------------|----------------------------||


    E q   E  E  E  E   q     E Q    q           4x
||-------------------|--------------------------||
||o-0-0---0--0-(0)-0-|-0-----0-0----0----------o||
||--0-0--------------|-------9-9---10-----------||
||-------12-12s10--9-|-9------------------------||
||o------------------|-------------------------o||
||-------------------|--------------------------||
|
|                                |-3--| |-3-|
|   E q   E  q     E   e +e  E e S  S S S S S E 4x
||-------------------|------------------------5-||
||o---0------0-------|-0-(0)---0--------5-6-8--o||
||--2-0---2--0-----2-|-0-(0)-2-0-4--5-7---------||
||-------------------|--------------------------||
||o------------------|-------------------------o||
||-------------------|--------------------------||


                                           6/8
  E q   E  q  E   q     E q       q         E q   E  q    E q  E q
|---------------|-------------------------|-------------|------------|
|-0-0---0--0--0-|-0-----0-0-------0-------|-0-0---0--0--|-0-0--0-0---|
|-0-0---------9-|-9-----------------------|-0-0---------|-9-9--------|
|------12-12----|-------9-9-------9-------|------12-12--|------9-9---|
|---------------|-------------------------|-------------|------------|
|---------------|-------------------------|-------------|------------|
|
|                           |-3-| |-3-|
| E q   E  q  E   e +e  E e S S S S S S E   E q   E  q    E q  E q
|---------------|-----------------------5-|-------------|------------|
|---0------0----|-0-(0)---0-------5-6-8---|---0------0--|---0----0---|
|-2-0---2--0--2-|-0-(0)-2-0-4-5-7---------|-2-0---2--0--|-2-0--2-0---|
|---------------|-------------------------|-------------|------------|
|---------------|-------------------------|-------------|------------|
|---------------|-------------------------|-------------|------------|


   4/4
    T      T       T     T     T      T      T       T     T     T
    |-3--| |-3--|                     |-3--| |-3--|
    S S  S S  S S  E  E  E  E  E  E   S S  S S  S S  E  E  E  E  E  E     4x
||-----------------5p=1-------------|----------------5p=1-----------------||
||o----------------------5p=1--5p=1-|----------------------5p=1--5p=1----o||
||---------5p=0h2-------------------|--------5p=0h2-----------------------||
||--5p0h=3--------------------------|-5p0h=3------------------------------||
||o---------------------------------|------------------------------------o||
||----------------------------------|-------------------------------------||
|
|                     T  T  T  T  T                       T  T  T  T  T
|   |-3--| |-3--|                       |-3--| |-3--|
|   S S  S S  S S  E  E  E  E  E  E     S S  S S  S S  E  E  E  E  E  E      4x
||------------------------------------|------------------------------------||
||o---------------10-------------------|---------------10-----------------o||
||---------9h10p2-------12*-14*---14*-|--------9h10p2--------12*---12*-----||
||--7h8h10-----------12*-------14*----|-7h8h10------------12*---12*---12*--||
||o-----------------------------------|-----------------------------------o||
||------------------------------------|------------------------------------||


     T  T  T  T  T  T  T     T  T  T  T  T  T  T
     e  e  e  e  e  e  q     e  e  e  e  e  e  q   4x
||------------------------|------------------------||
||o-------10----------10--|-------10----------10--o||
||-----10----10----10-----|----10----10----10------||
||--10----------10--------|-10----------10---------|| “hit fingers”
||o-----------------------|-----------------------o||
||------------------------|------------------------||
|
|    T  T  T  T  T  T  T     T  T  T  T  T  T  T
|    e  e  e  e  e  e  q     e  e  e  e  e  e  q   4x
||------------------------|------------------------||
||o-----------------------|-----------------------o||
||--12-12-12-12-12-12-----|------------------------||
||------------------------|-12-12-12-12-12-12------|| “hit fingers”
||o-------------------12--|-------------------12--o||
||------------------------|------------------------||


    


    T   T  T   T  T   T  T   T  T   T  T   T  T
    |-3-|  |-3-|  |-3-|  |-3-|  |-3-|  |-3-|
    S S S  S S S  S S S  S S S  S S S  S S S  q
||------------------------------------------------|
||o-10-1---10-1---10-1---10-1---10-1---10-1---10--|
||------------------------------------------------|
||------3*-----3*-----3*-----3*-----3*-----3*-----|
||o-----------------------------------------------|
||------------------------------------------------|
|
|    T      T      T      T      T      T      T
|    e      e      e      e      e      e      q
||------------------------------------------------|
||o-----------------------------------------------|
||--12-----12-----12-----12-----12-----12---------| “hit fingers”
||------------------------------------------------|
||o-------------------------------------------12--|
||------------------------------------------------|


  T   T  T   T  T   T  T   T  T   T  T   T  T
  |-3-|  |-3-|  |-3-|  |-3-|  |-3-|  |-3-|
  S S S  S S S  S S S  S S S  S S S  S S S  q  9x
|-----------------------------------------------||
|-10-1---10-1---10-1---10-1---10-1---10-1---10-o||
|-----------------------------------------------||
|-----3*-----3*-----3*-----3*-----3*-----3*-----||
|----------------------------------------------o||
|-----------------------------------------------||
|
|  T      T      T      T      T      T      T
|  e      e      e      e      e      e      q  9x
|-----------------------------------------------||
|----------------------------------------------o||
|-----------------------------------------------|| “hit fingers”
|-12-----12-----12-----12-----12-----12---------||
|-------------------------------------------12-o||
|-----------------------------------------------||


     E     E     E     S   E   E   S   S   S   E  20x
||-------------------------------------------------||
||o-----------------------------------------------o||
||--<7>---------------<7>--------------------------||
||--------<7>---<7>-------<7>----------------------||
||o---------------------------<7>-<7>-<7>-<7>-<7>-o||
||-------------------------------------------------||
|
|    T  T  T  T  T  T  T   T   T   T   T   T   T
|    S  S  S  S  S  S  S   E   E   S   S   S   E  20x
||--12---------------------------------------------||
||o-------------------13--------------------------o||
||--------12----12------------12--12------12-------||
||------5*----5*----5*-----5*----------5*------5*--||
||o-----------------------------------------------o||
||-------------------------------------------------||

--------------------------------------------------------------------------------


Duration Legend
---------------
W - whole; H - half; Q - quarter; E - 8th; S - 16th; T - 32nd; X - 64th; a - acciaccatura
+ - note tied to previous; . - note dotted; .. - note double dotted
Uncapitalized letters represent notes that are staccato (1/2 duration)
Irregular groupings are notated above the duration line
Duration letters will always appear directly above the note/fret number it represents the
duration for.  Duration letters with no fret number below them represent rests.  Multi-
bar rests are notated in the form Wxn, where n is the number of bars to rest for.  Low
melody durations appear below the staff

Tablature Legend
----------------
 h   - hammer-on
 p   - pull-off
 b   - bend
 pb  - pre-bend
 r   - bend release (if no number after the r, then release immediately)
 /\  - slide into or out of (from/to "nowhere")
 s   - legato slide
 S   - shift slide
 - natural harmonic
[n]  - artificial harmonic
n(n) - tapped harmonic
 ~   - vibrato
 tr  - trill
 T   - tap
 TP  - trem. picking
 PM  - palm muting
\n/  - tremolo bar dip; n = amount to dip
 \n  - tremolo bar down
 n/  - tremolo bar up
/n\  - tremolo bar inverted dip
 =   - hold bend; also acts as connecting device for hammers/pulls
 <> - volume swell (louder/softer)
 x   - on rhythm slash represents muted slash
 o   - on rhythm slash represents single note slash

Misc Legend
-----------
 |  - bar
||  - double bar
||o - repeat start
o|| - repeat end
*|  - double bar (ending)
 :  - bar (freetime)





Comments


Popular Maps And Atlases tabs & chords
Daily News Bass Tabs
Old And Gray Bass Tabs
Solid Ground 2 Bass Tabs
Stories About Ourselves Bass Tabs
Will Bass Tabs
Every Place Is A House Intro Tabs
Every Place Is A House Intro 1 Tabs
Most Trustworthy Tin Cans Tabs
Most Trustworthy Tin Cans Intro Tabs
The Ongoing Horrible Tabs


Song lyrics



↑ Back to top | Tablatures and chords are parodies/interpretations of the original songs. You may use it for private study, scholarship, research or language learning purposes only
© 2014 AZChords.com Contact us | Privacy policy | DMCA | Add/correct tabs | Request tabs | Top 50 tabs