>
 >
Tres Canciones Populares Mexicanas - 3

Tres Canciones Populares Mexicanas - 3 Guitar Tabs

Manuel Maria Ponce - Tres Canciones Populares Mexicanas - 3 chords, tabs, tablatures, lyrics

Guitar lessons | Add/correct | Request | Top 50 tabs Artists:  A B C D E F G H I J K L M N O P Q R S T U V W X Y Z 0-9

Tres Canciones Populares Mexicanas - 3 Guitar Tabs – Manuel Maria Ponce

CD, Sheet music, Poster

Do you like Tres Canciones Populares Mexicanas - 3? Share with your friends now
Tabs
Tres Canciones Populares Mexicanas
III
Manuel Ponce

 
 
1               
E|----7-4-0-5---------|----0-4-------------|----0--0-4-7-4------|
B|----5-4-----7-4-----|----0-5-------------|---------------5----|
G|----6---7-6-5-4-----|--------------------|--------------------|
D|--------------------|----7-6-4-----------|-------------4-6----|
A|--------------------|--------------7-6-4-|----2--4-6-7--------|
E|----0-----0---------|----0---------------|----0------4--------|


4
E|----2---------------|--------------0-----|----2s7-------------|
B|-----5-4-2-4--------|----7-7-5-4-4-------|----0---6-7-8-9-----|
G|----4------4-3^4----|----8-8-6-2-2-------|----2---7-8-9-10----|
D|--------------------|----7-7-6-4-4-2-----|----1---------------|
A|----2---------------|--------------------|----2---------------|
E|--------------------|----7---------------|--------------------|


7
E|----9--2-4-7^5-4-3--|---4--0-------------|----7-4-0-5---------|
B|----10-4-4---4-4-4--|--------------------|----5-4-----7-4-----|
G|----11-2-4---6-4-2--|--------------------|----6---7-6-5-4-----|
D|----9---------------|--------------------|--------------------|
A|--------------------|------1s2-5^4-2-----|--------------------|
E|--------------------|---0----------------|----0-----0---------|
 

10
E|----0-4-----------7-|---10---10-10-9-8---|---9----------------|
B|----0-------------7-|---------7--9---6---|----10-10--9--10--2-|
G|--------------------|------10------------|----11-11-10--11----|
D|----7-6-4-----------|--------------------|---9----------------|
A|--------------7-6-5-|---------6--8---4---|--------------------|
E|----0---------------|----9---------------|--------------------|
 

13
E|---8----------------|---7-----7s11-----9-|---7----------------|
B|---5-5--4-5--7------|-------5---------10-|---9---7-10---7-----|
G|--------------------|-----4--------------|---9---8--8---8-----|
D|--------------------|--------------------|-------7-11^9-------|
A|---0----------------|---------------0----|--------------------|
E|--------------------|---4----------------|-----7--------7-----|


16
E|--0.----------------|----7-4-0-5---------|----0-4-------------|
B|--0.----------------|----5-4-----7-4-----|----0-5-------------|
G|--------------------|----6---7-6-5-4-----|--------------------|
D|--6.----------------|--------------------|----7-6-4-----------|
A|--------------------|--------------------|--------------7-6-4-|
E|-----7^6-7-9^7------|----0-----0---------|----0---------------|

 
19
E|----0--0-4-7-4------|----2---------------|--------------0-----|
B|---------------5----|-----5-4-2-4--------|----7-7-5-4-4-------|
G|--------------------|----4------4-3^4----|----8-8-6-2-2-------|
D|-------------4-6----|--------------------|----7-7-6-4-4-2-----|
A|----2--4 6-7--------|----2---------------|--------------------|
E|----0------4--------|--------------------|----7---------------|


22
E|----2s7-------------|----9--2-4-7^5-4-3--|---4--0-------------|
B|----0---6-7-8-9-----|----10-4-4---4-4-4--|--------------------|
G|----2---7-8-9-10----|----11-2-4---6-4-2--|--------------------|
D|----1---------------|----9---------------|--------------------|
A|----2---------------|--------------------|------1s2 5^4-2-----|
E|--------------------|--------------------|---0----------------|


25
E|----7-4-0-5---------|----0-4-----------7-|---10---10-10-9-8---|
B|----5-4-----7-4-----|----0-------------7-|---------7--9---6---|
G|----6---7-6-5-4-----|--------------------|------10------------|
D|--------------------|----7-6-4-----------|--------------------|
A|--------------------|--------------7-6-5-|---------6--8---4---|
E|----0-----0---------|----0---------------|----9---------------|


28
E|---9----------------|---8----------------|---7-----7s11-----9-|
B|----10-10--9--10--2-|---5-5--4-5--7------|-------5---------10-|
G|----11-11-10--11----|--------------------|-----4--------------|
D|---9----------------|--------------------|--------------------|
A|--------------------|---0----------------|---------------0----|
E|--------------------|--------------------|---4----------------|


31
E|---7----------------|--0.----------------|--------------0-----|
B|---9---7-10---7-----|--0.----------------|----7-7-5-4-4-------|
G|---9---8--8---8-----|--------------------|----8-8-6-2-2-------|
D|-------7-11^9-------|--6.----------------|----7-7-6-4-4-2-----|
A|--------------------|--------------------|--------------------|
E|-----7--------7-----|-----7^6-7-9^7------|----7---------------|


34
E|----2s7-------------|----9--2-4-7^5-4-3--|---4--0-------------|
B|----0---6-7-8-9-----|----10-4-4---4-4-4--|--------------------|
G|----2---7-8-9-10----|----11-2-4---6-4-2--|--------------------|
D|----1---------------|----9---------------|--------------------|
A|----2---------------|--------------------|------1s2 5^4-2-----|
E|--------------------|--------------------|---0----------------|


37
E|--------------------|--------------------|--5---0-2--0--------|
B|----4-4-2--0--0--2--|-----4s10-----------|----4----------4----|
G|----2-2-2--2--2--2--|-----2----6---------|------1-2--1---0----|
D|----4-4-2--1--1--2--|-----4--------------|----4---------------|
A|----2---------------|--------------------|----2-2-2--2---2----|
E|--------------------|-------------7-----|--------------------|


40
E|---2-0--------------|----7-4-0-5---------|----0-4-----------7-|
B|-----0-----0--2^0---|----5-4-----7-4-----|----0-5-----------7-|
G|-----1-3------------|----6---7-6-5-4-----|--------------------|
D|--------------------|--------------------|----7-6-4-----------|
A|--------------------|--------------------|--------------7-6-5-|
E|---0----------------|----0-----0---------|----0---------------|


43
E|---10---10-10-9-8---|----9---5------5----|---8----------------|
B|---------7--9---6---|---10-7-7---9--7----|---5-5--4-5--7------|
G|------10------------|------6----10----6--|--------------------|
D|--------------------|--------------------|--------------------|
A|---------6--8---4---|----9---------------|---0----------------|
E|----9---------------|--------------------|--------------------|


46
E|---7-----7s11-----9-|---7---2-5----------|----0---------12----||
B|-------5---------10-|---9---4-4----4-----|----0----------9----||
G|-----4--------------|---9---2 6^4--2-----|----1----------9----||
D|--------------------|--------------------|--------------------||
A|---------------0----|-----2--------2-----|-------1s2----------||
E|---4----------------|--------------------|---------------0----||





Comments


Popular Manuel Maria Ponce tabs & chords
Molto Piu Lento Tabs
Prelude In E Tabs
Prelude No 1 In Fm Tabs
Prelude No 2 In A Tabs
Prelude No 3 In F Tabs
Prelude No 4 In B Tabs
Suite In Am - 3 Sarabande Tabs
Tres Canciones Populares Mexicanas - 1 Tabs
Tres Canciones Populares Mexicanas - 2 Tabs
Variacions Sobre Un Tema De Antonio Cabezon Tabs


Song lyrics



↑ Back to top | Tablatures and chords are parodies/interpretations of the original songs. You may use it for private study, scholarship, research or language learning purposes only
© 2014 AZChords.com Contact us | Privacy policy | DMCA | Add/correct tabs | Request tabs | Top 50 tabs