» » »

Manson Marilyn, Tourniquet Tabs (ver.1)

Artists:  A B C D E F G H I J K L M N O P Q R S T U V W X Y Z # 

Tourniquet Tabs (ver.1)

Manson Marilyn Tabs
 Rating:
4/5 (4 votes)
Tourniquet lessons Tabs too difficult? Try these video lessons and learn fast
                this is tab for "touniquet" by Marilyn Manson->


Main riff intro
|-------------------------_---|
|-----------------------5b-r--|
|-----_________---------5b-r--|
|--7b----7---7-r7-3-5-3-------|
|-----------------------------|
|-----------------------------|


Chorus-this might look messed up, sorry
|--------------------------------------------------------------------------------------------|
|--------------------------------------------------------------------------------------------|
|-------------------------------------------------------------------15-15-15-15-15-15-15-15--|
|--5-5-5-5-5-5-5-5-/12-12-12-12-12-12-12-12-13-13-13-13-13-13-13-13--------------------------|
|--5-5-5-5-5-5-5-5--------------------------------------------------13-13-13-13-13-13-13-13--|
|--3-3-3-3-3-3-3-3---------------------------------------------------------------------------|

that weird hor-sounding part
|-----------|
|-----------|
|-----------|
|-----------|
|-----------|
|--3bv~~~r--|
            
Submit corrections

comments powered by Disqus
↑ Back to top | Manson Marilyn Tabs for Tourniquet. Lyrics for acoustic guitar and electric guitar. Tablatures and chords are parodies/interpretations of the original songs. You may use it for private study, scholarship, research or language learning purposes only