>
 >
Great Big White World 1

Great Big White World 1 Guitar Tabs

Manson Marilyn - Great Big White World 1 chords, tabs, tablatures, lyrics

Guitar lessons | Add/correct | Request | Top 50 tabs Artists:  A B C D E F G H I J K L M N O P Q R S T U V W X Y Z 0-9

Great Big White World 1 Guitar Tabs – Manson Marilyn

CD, Sheet music, Poster

Do you like Great Big White World 1? Share with your friends now
TabsTabs v2
"Great Big White World"
Marilyn Manson
Mechanical Animals

Tuning-Eb,Ab,Db,Gb,Bb,eb 

h-hammer on
p-pulloff
b-bend
r-release
/-slide up
\-slide down
~-light vibrato
v-heavy vibrato
^-whammy bar

riff 1.1
e------------------------------------------------------------------|
B------------------------------------------------------------------|
G------------------------------------------------------------------|
D---9--------12----11-~~~~~--------7-9--------12----11-------------|
A---------------------------------------------------------14-------|
E------------------------------------------------------------------|
                                                     let ring

riff 1.2
e--------------------------------------------------------------------|
B--------------------------------------------------------------------|
G--------------------------------------------------------------------|
D---7-9--------12----11-~~~~~--------7-9--------12----11-------------|
A-----------------------------------------------------------14-------|
E--------------------------------------------------------------------|

riff 2....let ring throughout
e-------------------------------------------------------------------------------
B-------------------------------------------------------------------------------
G-------------------------------------------------------------------------------
D------12-11----12-11----12----12-11----12-11----12----12-11----12-11----12-----
A---14-------14-------14----13-------13-------13----12-------12-------12----11--
E-------------------------------------------------------------------------------

e------------------------------|
B------------------------------|
G------------------------------|
D---12-11----12-11----12-------|
A---------11-------11----------|
E------------------------------|

riff 3
e----------------------------------------------------------------------|
B----------------------------------------------------------------------|
G--------------------------------------------------------16vvv---------|
D-----9-12-14-14b15r14-14-12-9~~~-9-12-14-14b15r14-14-12---------------|
A----------------------------------------------------------------------|
E----------------------------------------------------------------------|
|                                                                      |
|                                                                      |
e----------------------------------------------------------------------|
B----------------------------------------------------------------------|
G----------------------------------------------------------------------|
D---5----5---5-5--2--2---2---/9---9---9--9---9--9---9---9--9-----------|
A---5----5---5-5--2--2---2---/9---9---9--9---9--9---9---9--9-----------|
E---3----3---3-3--0--0---0---/7---7---7--7---7--7---7---7--7-----------|

riff 4.1
e-------------------------------------------------------------------------------
B-------------------------------------------------------------------------------
G-------------------------------------------------------------------------------
D---2--2--2--2--2--2--2--2--5--5--5--5--5--5--5--5--9--9--9--9--9--9--9--9--9\7-
A---2--2--2--2--2--2--2--2--5--5--5--5--5--5--5--5--9--9--9--9--9--9--9--9--9\7-
E---0--0--0--0--0--0--0--0--3--3--3--3--3--3--3--3--7--7--7--7--7--7--7--7--7\5-

e----------------------------------------------------------------------------|
B----------------------------------------------------------------------------|
G----------------------------------------------------------------------------|
D--7--7--7--7--7--7--7\5--5--5--5--5--5--5--5--5\4--4--4--4--4--4--4--4------|
A--7--7--7--7--7--7--7\5--5--5--5--5--5--5--5--5\4--4--4--4--4--4--4--4------|
E--5--5--5--5--5--5--5\3--3--3--3--3--3--3--3--3\2--2--2--2--2--2--2--2------|

riff 4.2
e-------------------------------------------------------------------------------
B-------------------------------------------------------------------------------
G-------------------------------------------------------------------------------
D---2--2--2--2--2--2--2--2--5--5--5--5--5--5--5--5--9--9--9--9--9--9--9--9--9\7-
A---2--2--2--2--2--2--2--2--5--5--5--5--5--5--5--5--9--9--9--9--9--9--9--9--9\7-
E---0--0--0--0--0--0--0--0--3--3--3--3--3--3--3--3--7--7--7--7--7--7--7--7--7\5-

e-------------------------------------------------------------------------------
B-------------------------------------------------------------------------------
G-------------------------------------------------------------------------------
D--7--7--7--7--7--7--7\2--2--2--2--2--2--2--2--5--5--5--5--5--5--5--5--9--9--9--
A--7--7--7--7--7--7--7\2--2--2--2--2--2--2--2--5--5--5--5--5--5--5--5--9--9--9--
E--5--5--5--5--5--5--5\0--0--0--0--0--0--0--0--3--3--3--3--3--3--3--3--7--7--7--

e-------------------------------------------------------------------------------
B-------------------------------------------------------------------------------
G-------------------------------------------------------------------------------
D--9--9--9--9--9--9\7--7--7--7--7--7--7--7--7\5--5--5--5--5--5--5--5--5\4--4--4-
A--9--9--9--9--9--9\7--7--7--7--7--7--7--7--7\5--5--5--5--5--5--5--5--5\4--4--4-
E--7--7--7--7--7--7\5--5--5--5--5--5--5--5--5\3--3--3--3--3--3--3--3--3\2--2--2-

e--------------------|
B--------------------|
G--------------------|
D--4--4--4--4--4--\--|
A--4--4--4--4--4--\--|
E--2--2--2--2--2--\--|

solo 1 (over riff 4.2)
e-------------------------------------------------------------------------------
B-------------------------------------------------------------------------------
G---9--9-9--9-9--9-9--9--9--11--11-11--11-11--11-11--11--11--12--12-12--12-12---
D-------------------------------------------------------------------------------
A-------------------------------------------------------------------------------
E-------------------------------------------------------------------------------

e------------------------------------------------R------------------------------
B------------------------------------------------E------------------------------
G--12-12--12--12--14--14-14--14-14--16vvvvv------P------16-----16-----16-----16-
D------------------------------------------------E---17-----17-----17-----17----
A------------------------------------------------A------------------------------
E------------------------------------------------T------------------------------

                                  ^^^^^^^^^^^^^^^^^^^^^^^^
e----------------------------------------------------------|
B----------------------------------------------------------|
G-----16-----16-----16-----16-----16-----16-----16---------|
D--17-----17-----17-----17-----17-----17-----17-----17--\--|
A----------------------------------------------------------|
E----------------------------------------------------------|

solo 2 (over riff 4.2)
e-----------------------------------------|-------------------------------------
B-----------------------------------------|-------------------------------------
G-----------------------------------------|-11b12r11---11b12r11---11b12r11--11b-
D---9----9--9---9--11---12---14b15r14---9-|-------------------------------------
A-----------------------------------------|-------------------------------------
E-----------------------------------------|-------------------------------------
                                          \_____________________________________
                                                               REPEAT UNDERLINED
e------------------------------|
B------------------------------|
G--12r11---11b12r11--9~~~~-----|  
D------------------------------|
A------------------------------|
E------------------------------|
_______________________________/                               
 SEGMENT TO END OF SONG

STRUCTURE
Intro
	riff 1.1
	riff 1.2
Verse 
	riff 1.2 2x
Bridge
	riff 2 2x
Chorus 1
	riff 3 4x
Interlude 1
	riff 4.1
Intro
Verse
Chorus 1
Interlude 2
	riff 4.2
Chorus 2
	riff 2 2x
Solo 1
	solo 1 over riff 4.2
Interlude 3
	solo 2 over riff 4.2
END





Comments


Popular Manson Marilyn tabs & chords
Coma Black Tabs
Dope Hat 1 Tabs
I Dont Like The Drugs 1 Tabs
Love Song Tabs
Minute Of Decay Tabs
President Dead Tabs
Rock And Roll Nigger 1 Tabs
Sweet Dreams Are Made Of This Tabs
Sweet Tooth 1 Tabs
Tied Up Dried Up And Dead To The World Complete Tabs


Song lyrics



↑ Back to top | Tablatures and chords are parodies/interpretations of the original songs. You may use it for private study, scholarship, research or language learning purposes only
© 2014 AZChords.com Contact us | Privacy policy | DMCA | Add/correct tabs | Request tabs | Top 50 tabs