>
 >
Antichrist Superstar

Antichrist Superstar Guitar Tabs

Manson Marilyn - Antichrist Superstar chords, tabs, tablatures, lyrics

Guitar lessons | Add/correct | Request | Top 50 tabs Artists:  A B C D E F G H I J K L M N O P Q R S T U V W X Y Z 0-9

Antichrist Superstar Guitar Tabs – Manson Marilyn

CD, Sheet music, Poster

Do you like Antichrist Superstar? Share with your friends now
TabsTabs v2
Marilyn Manson - "Antichrist Superstar" (Manson/Ramirez/Gacy)

Here you go, my first tab ever.  Enjoy it!

					
                              m = mute the string 
                              " = play the note(s) palm muted
 
intro
e|-----------------------------------------------------------------
B|-----Hey!----Hey!----Hey!----Hey!----Hey!----Hey!----Hey!----Hey!
G|-----------------------------------------------------------------
D|-2-2-m---2-2-m---2-2-m---2-2-m---2-2-m---2-2-m---2-2-m---2-2-m---
A|-2-2-m---2-2-m---2-2-m---2-2-m---2-2-m---2-2-m---2-2-m---2-2-m---
E|-0-0-m---0-0-m---0-0-m---0-0-m---0-0-m---0-0-m---0-0-m---0-0-m---
 

main riff
e|-----------------------------------------------------------------
B|-----------------------------------------------------------------
G|-----------------------------------------------------------------
D|-2-2-5-2---7-5---2-2-5-2---7-5---2-2-5-2---7-5---2-2-5---8-7-5---
A|-2-2-5-2-0-7-5---2-2-5-2-0-7-5---2-2-5-2-0-7-5---2-2-5-0-8-7-5---
E|-0-0-3-0-0-5-3---0-0-3-0-0-5-3---0-0-3-0-0-5-3---0-0-3-0-6-5-3---
           "               "               "                       

verse riff
e|-----------------------------------------------------------------
B|-----------------------------------------------------------------
G|-----------------------------------------------------------------
D|-2-2-5-2m2-2-5-2m2-2-5-2m2-2-5-2m2-2-5-2m2-2-5-2m2-2-5-2m2-2-5-2m
A|-2-2-5-2m2-2-5-2m2-2-5-2m2-2-5-2m2-2-5-2m2-2-5-2m2-2-5-2m2-2-5-2m
E|-0-0-3-0m0-0-3-0m0-0-3-0m0-0-3-0m0-0-3-0m0-0-3-0m0-0-3-0m0-0-3-0m


chorus riff A
e|-6-6-6-6-5-5-3-3-----------------6-6-6-6-5-5-3-3-----------------
B|-6-6-6-6-5-5-3-3-----------------6-6-6-6-5-5-3-3-----------------
G|-7-7-7-7-6-6-4-4-----------------7-7-7-7-6-6-4-4-----------------
D|-8-8-8-8-7-7-5-5-2-2-5-2---7-5---8-8-8-8-7-7-5-5-2-2-5-2---7-5---
A|-8-8-8-8-7-7-5-5-2-2-5-2-0-7-5---8-8-8-8-7-7-5-5-2-2-5-2-0-7-5---
E|-6-6-6-6-5-5-3-3-0-0-3-0-0-5-3---6-6-6-6-5-5-3-3-0-0-3-0-0-5-3---
    (-----) (-) (-)        "        (-----) (-) (-)        "      

chorus riff B 
e|-6-6-6-6-5-5-3-3-----------------6-6-6-6-5-5-3-3-
B|-6-6-6-6-5-5-3-3-----------------6-6-6-6-5-5-3-3-
G|-7-7-7-7-6-6-4-4-----------------7-7-7-7-6-6-4-4-
D|-8-8-8-8-7-7-5-5-2-2-5-2---7-5---8-8-8-8-7-7-5-5-
A|-8-8-8-8-7-7-5-5-2-2-5-2-0-7-5---8-8-8-8-7-7-5-5-
E|-6-6-6-6-5-5-3-3-0-0-3-0-0-5-3---6-6-6-6-5-5-3-3-
    (-----) (-) (-)        "        (-----) (-) (-)   
	
The chords marked (-----) and (-) are optional.  If they are not played
remember to let the other ones ring until switching chords.


bridge
e|-----------------------------------------------------------------
B|-----------------------------------------------------------------
G|-----------------------------------------------------------------
D|-2-2-5---8-7-5---2-2-5---8-7-5---2-2-5---8-7-5---2-2-5---8-7-5---
A|-2-2-5-0-8-7-5---2-2-5-0-8-7-5---2-2-5-0-8-7-5---2-2-5-0-8-7-5---
E|-0-0-3-0-6-5-3---0-0-3-0-6-5-3---0-0-3-0-6-5-3---0-0-3-0-6-5-3---

*OR*  This riff above is really heard in the background while another
guitar picks a chord once and then uses the trembar and feedback to hold
and bend the pitch until the next verse starts.  If you choose to play
the feedback it does not matter much which chord you use but on my
guitar it sounds best with a high A#-chord:

e|--------
B|-15-----       let ring(feedback!)and at the 	
G|-15-----       end silde down to fret 3
D|-15-----		
A|--------
E|--------



The bass simply follows the guitar throughout the song


song structure 

1x      intro

2x      main riff		


2x      verse riff              "You built me up..."

2x      main riff               "REPENT!..."

1x      chorus riff A           "Cut the head off..."

1x      chorus riff B           "I am the hydra..."


1x      bridge(the riff or feedback)		


2x      verse riff              "Prick your finger..."

2x      main riff               "REPENT!..."

1x      chorus riff A           "Cut the head off..."

1x      chorus riff B           "I am the hydra..."


        break		


2x      intro                   "Time has come and..."

2x      chorus riff A	 


1x      chorus riff A           "Cut the head off..."

1x      chorus riff B           "I am the hydra..."

2x      intro


:)Nan i Uppsala som behover en gitarrist? Har har ni ett nyinflyttat
Sisters-fan till ert forfogande.

Any comments, corrections, etc  please let me know.
-Gustav





Comments


Popular Manson Marilyn tabs & chords
Minute Of Decay 1 Bass Tabs
Coma White Tabs
Coma White Intro Tabs
Cryptochid 1 Tabs
Dogma Tabs
Dope Hat 1 Tabs
I Dont Like The Drugs 1 Tabs
Organ Grinder 1 Tabs
Sweet Dreams 1 Tabs
Tied Up Dried Up And Dead To The World Complete Tabs


Song lyrics



↑ Back to top | Tablatures and chords are parodies/interpretations of the original songs. You may use it for private study, scholarship, research or language learning purposes only
© 2014 AZChords.com Contact us | Privacy policy | DMCA | Add/correct tabs | Request tabs | Top 50 tabs