» » »

Manowar, The Gods Made Heavy Metal Tabs (ver.1)

Artists:  A B C D E F G H I J K L M N O P Q R S T U V W X Y Z # 

The Gods Made Heavy Metal Tabs (ver.1)

Manowar Tabs
 Rating:
4/5 (4 votes)
The Gods Made Heavy Metal lessons Tabs too difficult? Try these video lessons and learn fast
                Manowar: Gods made Heavy Metal from "Louder than Hell"

Standard Tuning(EADGBE)

INTRO (Repeat 3x)
|---------------------------------------------------------------------------|
|---------------------------------------------------------------------------|
|----------------9---7---9---7---7/9-9--------------------------------------|
|-----2----5-4---9---7---9---7---7/9-9--------------------------------------|
|-3-5----5-------7---5---7---5---5/7-7--------------------------------------|
|----------------0-0---0---0---0--------------------------------------------|

|---------------------------------------------------------------------------|
|---------------------------------------------------------------------------|
|---------------4-----------------------------------------------------------|
|-----2----5-4--4-----------------------------------------------------------|
|-3-5----5------2-----------------------------------------------------------|
|---------------------------------------------------------------------------|

Riff A
|-----------------|---------------------------------------------------------|
|-----------------|---------------------------------------------------------|
|-----------------|---------------------------------------------------------|
|repeat-many-times|---------------------------------------------------------|
|-----------------|---------------------------------------------------------|
|-0-0-0-0-0-0-0-0-|-3-3-3-3-3-3-3-3-3-3-3-3-0-0-0-0-0-0-0-0-0-0-0-0-0-0-0-0-|

Pre-Chorus
|----------------------------------------------------------------------------|
|----------------------------------------------------------------------------|
|-5-5-5------------7-7-7------------9---7---9---7---7/9-9--------------------|
|-5-5-5-------2-2--7-7-7-5-5-5-4-4--9---7---9---7---7/9-7--------------------|
|-3-3-3-5-5-5------5-5-5------------7---5---7---5---5/7-7--------------------|
|-----------------------------------0-0---0---0---0--------------------------|

|---------------------------------------------------------------------------|
|---------------------------------------------------------------------------|
|-5-5-5------------7-7-7-------------4-4-4-4-4-4-4-4-4-4-4-4----------------|
|-5-5-5-------2-2--7-7-7-5-5-5-4-4---4-4-4-4-4-4-4-4-4-4-4-4----------------|
|-3-3-3-5-5-5------5-5-5-------------2-2-2-2-2-2-2-2-2-2-2-2----------------|
|---------------------------------------------------------------------------|

Chorus 4x
|----0----------------------------------------------------------------------|
|----0----------------------------------------------------------------------|
|----0--5--4----------------------------------------------------------------|
|-2-----5--4----------------------------------------------------------------|
|-2-----3--2----------------------------------------------------------------|
|-0-------------------------------------------------------------------------|

SOLO (Not very correct but this is the way I play it)
|--------------------------------------------------15-----15-----15---------|
|-------------------------------12-13-15--13-15-17-17(19)-17(19)-17(19)-----|
|----------------------11-12-14---------------------------------------------|
|-------------10-12-14------------------------------------------------------|
|----10-12-14---------------------------------------------------------------|
|-12------------------------------------------------------------------------|

|-15p14----14--15p14----14--15p14----14--15p14----14------------------------|
|-------17-----------17-----------17-----------17---------------------------|
|---------------------------------------------------------------------------|
|---------------------------------------------------------------------------|
|---------------------------------------------------------------------------|
|---------------------------------------------------------------------------|

|-19(21)-21p19-19(21)-21p19--19h21p19-14h17p14------------------------------|
|----------------------------------------------14h17p14---------------------|
|-------------------------------------------------------14h16p14------------|
|---------------------------------------------------------------------------|
|---------------------------------------------------------------------------|
|---------------------------------------------------------------------------|
                             P.H
|---------------------------------------------------------------------------|
|-7-----9------10-----12----------------------------------------------------|
|-9(11)-11(13)-12(14)-14(16)-14(15)~---13(14)-12h13-10h12-9h10----9---------|
|--------------------------------------------------------------12---12-10---|
|---------------------------------------------------------------------------|
|---------------------------------------------------------------------------|

|----------------------------------17-16-14----14-16--17-16-14----14-16-----|
|-------------------------------------------14-----------------14-----------|
|---------------------------------------------------------------------------|
|12-10-9----9---------------------------------------------------------------|
|--------12---10-9----12-10-9-----------------------------------------------|
|------------------12---------10--------------------------------------------|

|-17-16-14----14-16--17-16-14----14-16-----21-19-17----17-19--21 19----17-19|
|----------14-----------------14--------------------17--------------17------|
|---------------------------------------------------------------------------|
|---------------------------------------------------------------------------|
|---------------------------------------------------------------------------|
|---------------------------------------------------------------------------|

|-24----24------------------------------------------------------------------|
|----24----24-----14-0-0-12-0-0-10-0-0-9-0-0-7-0-0-9-0-0-10-0-0-7-0-0-------|
|---------------------------------------------------------------------------|
|---------------------------------------------------------------------------|
|---------------------------------------------------------------------------|
|---------------------------------------------------------------------------|

|---------------------------------------------------------------------------|
|---------------------------------------------------------------------------|
|-11p9-----9---------------------------------------------------------------|
|-------11----11p9--11p9----9-----------------------------------------------|
|------------------------11---11-10-9-7-------------------------------------|
|---------------------------------------------------------------------------|

|---------------------------------------------------------------------------|
|---------------------------------------------------------------------------|
|---------------------------------------------------------------------------|
|-------------------------------------2-------------------------------------|
|-------------------------------------2-------------------------------------|
|-------------------------------------0-------------------------------------|

Riff B(Right after the Solo)
|---------------------------------------------------------------------------|
|---------------------------------------------------------------------------|
|-5-5-5-5-5-5--7-7-7-7-7-7--9-9-9-9-9-9-------------------------------------|
|-5-5-5-5-5-5--7-7-7-7-7-7--9-9-9-9-9-9-------------------------------------|
|-3-3-3-3-3-3--5-5-5-5-5-5--7-7-7-7-7-7-------------------------------------|
|---------------------------------------------------------------------------|

|---------------------------------------------------------------------------|
|---------------------------------------------------------------------------|
|-5-5-5-5-5-5--7-7-7-7-7-7--4-4-4-4-4-4-------------------------------------|
|-5-5-5-5-5-5--7-7-7-7-7-7--4-4-4-4-4-4-------------------------------------|
|-3-3-3-3-3-3--5-5-5-5-5-5--2-2-2-2-2-2-------------------------------------|
|---------------------------------------------------------------------------|
            
Submit corrections

comments powered by Disqus
↑ Back to top | Manowar Tabs for The Gods Made Heavy Metal. Lyrics for acoustic guitar and electric guitar. Tablatures and chords are parodies/interpretations of the original songs. You may use it for private study, scholarship, research or language learning purposes only