» » »

I Believe Bass tabs (ver.1)

Artists:  A B C D E F G H I J K L M N O P Q R S T U V W X Y Z # 

I Believe Bass tabs (ver.1)

Manowar
Rating:
0/5 (0 votes)

Tabs too difficult? Try these video lessons and learn fast.
                Tune Down

F||--------------|--------------|--------------|--------------|
C||--------------|--------------|--------------|--------------|
G||--------------|--------------|--------------|--------------|
D||--------------|--------------|--------------|--------------|


                                                                     
-----------------|---------------|-----------------|----------------|
-----------------|---------------|-----------------|----------------|
--10------9------|--7------------|-----------------|----------------|
-----------------|---------------|--8------10------|--15/-----------|


                                                                 
---------------|--------------|---------------|-----------------|
---------------|--------------|---------------|-----------------|
---------------|--------------|--3------------|--2--------------|
--0------------|--------------|---------------|-----------3--2--|


                                                                 
---------------|--------------|---------------|-----------------|
---------------|--------------|---------------|-----------------|
---------------|--------------|--3------------|--2--------------|
--0------------|--------------|---------------|-----------3--2--|


                                                                 
---------------|--------------|---------------|-----------------|
---------------|--------------|---------------|-----------------|
---------------|--------------|--3------------|--2--------------|
--0------------|--------------|---------------|-----------3--3--|


                                                                     
-----------------|-----------------|---------------|----------------|
-----------------|-----------------|---------------|----------------|
--0-----------0--|--3--------------|---------------|----------------|
-----------3-----|-----------3--2--|--0------------|----------3--2--|


                                                                 
---------------|--------------|---------------|-----------------|
---------------|--------------|---------------|-----------------|
---------------|--------------|--3------------|--2--------------|
--0------------|--------------|---------------|-----------3--2--|


                                                                 
---------------|--------------|---------------|-----------------|
---------------|--------------|---------------|-----------------|
---------------|--------------|--3------------|--2--------------|
--0------------|--------------|---------------|-----------3--2--|


                                                                 
---------------|--------------|---------------|-----------------|
---------------|--------------|---------------|-----------------|
---------------|--------------|--3------------|--2--------------|
--0------------|--------------|---------------|-----------3--3--|


                                                                   
-----------------|-----------------|---------------|--------------|
-----------------|-----------------|---------------|--------------|
--0-----------0--|--3--------------|---------------|--------------|
-----------3-----|-----------3--2--|--0------------|--------------|


                                                                   
----------------|----------------|----------------|---------------|
----------------|----------------|----------------|---------------|
----------------|---------5------|--3------5------|---------------|
--3------2------|--0-------------|----------------|--3------------|


                                                                   
----------------|----------------|----------------|---------------|
----------------|----------------|----------------|---------------|
----------------|---------5------|--3------5------|---------------|
--3------2------|--0-------------|----------------|--3------------|


                                                                   
----------------|----------------|----------------|---------------|
----------------|----------------|----------------|---------------|
----------------|---------5------|--3------5------|---------------|
--3------2------|--0-------------|----------------|--3------------|


                                                                     
----------------|----------------|----------------|-----------------|
----------------|----------------|----------------|-----------------|
----------------|---------5------|--3------5------|-----------------|
--3------2------|--0-------------|----------------|--3--------3--2--|


                                                                 
---------------|--------------|---------------|-----------------|
---------------|--------------|---------------|-----------------|
---------------|--------------|--3------------|--2--------------|
--0------------|--------------|---------------|-----------3--2--|


                                                                 
---------------|--------------|---------------|-----------------|
---------------|--------------|---------------|-----------------|
---------------|--------------|--3------------|--2--------------|
--0------------|--------------|---------------|-----------3--2--|


                                                                 
---------------|--------------|---------------|-----------------|
---------------|--------------|---------------|-----------------|
---------------|--------------|--3------------|--2--------------|
--0------------|--------------|---------------|-----------3--3--|


                                                                     
-----------------|-----------------|---------------|----------------|
-----------------|-----------------|---------------|----------------|
--0-----------0--|--3--------------|---------------|----------------|
-----------3-----|-----------3--2--|--0------------|----------3--2--|


                                                                 
---------------|--------------|---------------|-----------------|
---------------|--------------|---------------|-----------------|
---------------|--------------|--3------------|--2--------------|
--0------------|--------------|---------------|-----------3--2--|


                                                                 
---------------|--------------|---------------|-----------------|
---------------|--------------|---------------|-----------------|
---------------|--------------|--3------------|--2--------------|
--0------------|--------------|---------------|-----------3--2--|


                                                                 
---------------|--------------|---------------|-----------------|
---------------|--------------|---------------|-----------------|
---------------|--------------|--3------------|--2--------------|
--0------------|--------------|---------------|-----------3--3--|


                                                                   
-----------------|-----------------|---------------|--------------|
-----------------|-----------------|---------------|--------------|
--0-----------0--|--3--------------|---------------|--------------|
-----------3-----|-----------3--2--|--0------------|--------------|


                                                                   
----------------|----------------|----------------|---------------|
----------------|----------------|----------------|---------------|
----------------|---------5------|--3------5------|---------------|
--3------2------|--0-------------|----------------|--3------------|


                                                                   
----------------|----------------|----------------|---------------|
----------------|----------------|----------------|---------------|
----------------|---------5------|--3------5------|---------------|
--3------2------|--0-------------|----------------|--3------------|


                                                                   
----------------|----------------|----------------|---------------|
----------------|----------------|----------------|---------------|
----------------|---------5------|--3------5------|---------------|
--3------2------|--0-------------|----------------|--3------------|


                                                                   
----------------|----------------|----------------|---------------|
----------------|----------------|----------------|---------------|
----------------|---------5------|--3------5------|---------------|
--3------2------|--0-------------|----------------|--3------------|


                                                                 
----------------|---------------|---------------|---------------|
----------------|---------------|--5------------|---------------|
----------------|---------------|--3------------|--5------------|
--3------2------|--0------------|---------------|--3------------|


                                                                 
----------------|---------------|---------------|---------------|
----------------|---------------|--5------------|---------------|
----------------|---------------|--3------------|--5------------|
--3------2------|--0------------|---------------|--3------------|


                                                                 
----------------|---------------|---------------|---------------|
----------------|---------------|--5------------|---------------|
----------------|---------------|--3------------|--5------------|
--3------2------|--0------------|---------------|--3------------|


                                                                       
----------------|----------------|----------------|-------------------|
----------------|----------------|----------------|-------------------|
----------------|---------5------|--3------5------|-------------------|
--3------2------|--0-------------|----------------|--3----3/-15/---3--|


                                                                   
----------------|----------------|----------------|---------------|
----------------|----------------|----------------|---------------|
----------------|---------5------|--3------5------|---------------|
--3------2------|--0-------------|----------------|--3------------|


                                                                   
----------------|----------------|----------------|---------------|
----------------|----------------|----------------|---------------|
----------------|---------5------|--3------5------|---------------|
--3------2------|--0-------------|----------------|--3------------|


                                                                   
----------------|----------------|----------------|---------------|
----------------|----------------|----------------|---------------|
----------------|---------5------|--3------5------|---------------|
--3------2------|--0-------------|----------------|--3------------|


                                                                   
----------------|----------------|----------------|---------------|
----------------|----------------|----------------|---------------|
----------------|---------5------|--3------5------|---------------|
--3------2------|--0-------------|----------------|--3------------|


                                                                   
----------------|----------------|----------------|---------------|
----------------|----------------|----------------|---------------|
----------------|---------5------|--3------5------|---------------|
--3------2------|--0-------------|----------------|--3------------|


                                                                   
----------------|----------------|----------------|---------------|
----------------|----------------|----------------|---------------|
----------------|---------5------|--3------5------|---------------|
--3------2------|--0-------------|----------------|--3------------|


                                                                   
----------------|----------------|----------------|---------------|
----------------|----------------|----------------|---------------|
----------------|---------5------|--3------5------|---------------|
--3------2------|--0-------------|----------------|--3------------|


                                                                   
----------------|----------------|----------------|---------------|
----------------|----------------|----------------|---------------|
----------------|---------5------|--3------5------|---------------|
--3------2------|--0-------------|----------------|--3------------|


                                                                    
----------------|----------------|--------------|------------------|
----------------|----------------|--------------|------------------|
----------------|---------5------|--------------|------------------|
--3------2------|--0-------------|--------------|------3/-15/---3--|


                                                                   
----------------|----------------|----------------|---------------|
----------------|----------------|----------------|---------------|
----------------|---------5------|--3------5------|---------------|
--3------2------|--0-------------|----------------|--3------------|


                                              
--------------|--------------|--------------||
--------------|--------------|--------------||
--------------|--------------|--------------||
--------------|--------------|--------------||
            
Tabs too difficult? Try these video lessons and learn fast.




comments powered by Disqus
↑ Back to top | Tablatures and chords are parodies/interpretations of the original songs. You may use it for private study, scholarship, research or language learning purposes only