» » »

Man Or Astro-man, Nitrous Burn Out Tabs (ver.2)

Artists:  A B C D E F G H I J K L M N O P Q R S T U V W X Y Z # 

Nitrous Burn Out Tabs (ver.2)

Man Or Astro-man Tabs
Rating:
0/5 (0 votes)
Nitrous Burn Out lessons Tabs too difficult? Try these video lessons and learn fast
                

Standard tuning (e,B,G,D,A,E)

Intro
e------------------------------------|
b------------------------------------|
g------------------------------------|
d-4--4-4--4-4-4-4--4-4--4-4-4--------|
a------------------------------------|
e------------------------------------|
Play this a few times, and bend the string every couple of notes.

Main riff
e------------------------------------|
b------------------------------------|
g------------------------------------|
d-4--4-4--4-4-4----------------------|
a---------------------5--4--4--------|
e---------------3-3-3----------------|x3

e------------------------------------|
b------------------------------------|
g------------------------------------|
d------------------------------------|
a------------------------------------|
e-2-2-2-3--2--2-2-2-2-3--2--2--------|

Breakdown
e---------------------------------------|
b---------------------------------------|
g-4------121212121212121211111112--11-11|
d-4------121212121212121211111112--11-11|
a-2------10101010101010109-9-9-10--9--9-|
e---------------------------------------|

e----------------------------------------|
b----------------------------------------|
g-4------12121212121212121414141414141414|
d-4------12121212121212121414141414141414|
a-2------10101010101010101212121212121212|
e----------------------------------------|

Break 2
e------------------------------------|
b------------------------------------|
g-4r-4---------7--6------------------|
d-4r-4---5-5-5-7--6------------------|
a-2r-2---5-5-5-5--4------------------|---
e--------3-3-3-----------------------|   |
                                         |-x2
e------------------------------------|   |
b------------------------------------|---|
g-4r-4-------------------------------|
d-4r-4---4-4-4-5--4------------------|
a-2r-2---4-4-4-5--4------------------|
e--------2-2-2-3--2------------------|

e------------------------------------|
b------------------------------------|
g------------------------------------|
d------------------------------------|
a------------------------------------|---|
e-0--0-2--3--2--2-2-2-2-2-2-2--------|   |
                                         |-x2
e------------------------------------|   |
b------------------------------------|---|
g------------------------------------|
d------------------------------------|
a-0-0-0-5--4--2--2-2-2-2-2-2-2-------|
e------------------------------------|

Noisy break
e------------------------------------|
b------------------------------------|
g------------------------------------|
d-4-5-4-0-4--2-2---4-5-4-0-----------|
a------------------------------5-5---|
e--------------------------2---------|
This part's kinda hard to figure out because it fades into a lot of noise, so
just play this and do some variations on it using the same notes that are used in
the rest of the song.

Close on this...
e------------------------------------|
b------------------------------------|
g-4r-4-------------------------------|
d-4r-4-------------------------------|
a-2r-2-------------------------------|
e------------------------------------|
            
Submit corrections

comments powered by Disqus
↑ Back to top | Man Or Astro-man Tabs for Nitrous Burn Out. Lyrics for acoustic guitar and electric guitar. Tablatures and chords are parodies/interpretations of the original songs. You may use it for private study, scholarship, research or language learning purposes only