» » »

Man Or Astro-man, Mystery Meat Tabs (ver.1)

Artists:  A B C D E F G H I J K L M N O P Q R S T U V W X Y Z # 

Mystery Meat Tabs (ver.1)

Man Or Astro-man Tabs
 Rating:
4/5 (4 votes)
Mystery Meat lessons Tabs too difficult? Try these video lessons and learn fast
                "Mystery Meat" by Man... or Astro-Man?

e---------------------------------------------------------|
B------let ring-------------------------------------------|
G---------0------0-------0--------------------------------|
D-----2-------------2-------2/3--3332--222/5--55332-------|
A--0------------------------------------------------------|
E---------------------------------------------------------|
repeat

e---------------------------------------------------------|
B---------------------------------------------------------|
G---------------------------------------------------------|
D-3--3--3--2--2-2---3--3--3--2--2--2--2/5--5--5/3--3--3-2-|
A-----------------0---------------------------------------|
E---------------------------------------------------------|


e--------------------------------------------------------|
B--------------------------------------------------------|
G--------------------------------------------------------|
D-----2--------------3--------------5------------7-5-5-3-|
A-0-3---3--0-3/5-5-5---5--0-5/7-7-7---7--0-7/8-8---------|
E--------------------------------------------------------|


e--------------------------------------------------------|
B--------------------------------------------------------|
G--------------------------------------------------------|
D-----2-------------3-------------5----------------------|
A-0-3--3--0-3/5-5-5--5--0-5/7-7-7--7--0-7/8--8-8-8-8-8-8-|
E--------------------------------------------------------|

e----------------------------------------------------------------|
b-1-1------------------------------------------------------------|
g-2---2----------------------------------------------------------|
d-2-----2--2--1-1--2-2--2----------3--2-2-2--1-1-2---------------|
a--------------------------3-3-3-3-------------------------------|
e----------------------------------------------------------------|

e----------------------------------------------------------------|
b-1--1--1----------------1--1--1---------------------1-----------|
g-2--2--2----------------2--2--2---------------------2-----------|
d-2--2--2----------------2--2--2---------------------2-----------|
a-----------------------------------3-3-2-5-5-3------------------|
e-----------1-1--3-3--1------------------------------------------|
            
Submit corrections

comments powered by Disqus
↑ Back to top | Man Or Astro-man Tabs for Mystery Meat. Lyrics for acoustic guitar and electric guitar. Tablatures and chords are parodies/interpretations of the original songs. You may use it for private study, scholarship, research or language learning purposes only